Oops, an error
Loading. Please wait.

Contagious Chemistry Bass Tab

version 2
version 2

Whole song

262 views 1 this week
no commentswrite comment
1 2 3 4 5
please rate
add to favorites
launch autoscroll
font size
0
reset
guitar tuner
Autoscroll
slow
fast
+/-
esc
set tempo
stop
Help us to improve Ultimate-Guitar.com Take our survey!
×
Difficulty
novice
G|----------------------------42------------------------------------------|
D|-------------------4----------4-----------------------------------------|(x2)
A|-6-6-6-686-2-2-2-2---1-1-1-1---34---------------------------------------|
E|---------------------------------4555-----------------------------------|

G|------------------------------------------------------------------------|
D|-----------------------------------------------------64-----------------|(x2)
A|-2--4--66666-44444-2222222222-66666-44444-2222222222---46---------------|
E|------------------------------------------------------------------------|

G|----------------------------42------------------------------------------|
D|-------------------4----------4-----------------------------------------|(x2)
A|-6-6-6-686-2-2-2-2---1-1-1-1---34---------------------------------------|
E|---------------------------------4555-----------------------------------|

G|------------------------------------------------------------------------|
D|-----------------------------------------------------64-----------------|(x2)
A|-2--4--66666-44444-2222222222-66666-44444-2222222222---46---------------|
E|------------------------------------------------------------------------|

G|-------------------------------------------------------------------------|
D|-------------------------------------------------------------------------|
A|-6666-4444---------6666-4444---------------------------------------------|
E|----------5555-3535----------5555-3535-----------------------------------|

G|-------------------------------------------------------------------------|
D|-------------------------------------------------------------------------|
A|-4-4-4-4-4-4------------7-7-7-7-7-797------------------------------------|
E|-------------5-5-5-5-5-5-------------------------------------------------|
Suggest correction
Give kudos to tab author, rate the tab!
1 2 3 4 5
comments
print report bad tab
guest
You may want to rate the tab now too:
select rating
Please do not post tabs as comments. Select "correction" instead!