Oops, an error
Loading. Please wait.

Hard To Swallow Bass Tab

1,146 views 1 this week
no commentswrite comment
1 2 3 4 5
excellent!
x 4
add to favorites
launch autoscroll
font size
0
reset
guitar tuner
Tab Pro tools
  • play this tab
  • loop segment
  • change instrument
  • show fretboard
  • metronome
×
Best way to learn
"Hard To Swallow"
Autoscroll
slow
fast
+/-
esc
set tempo
stop
Difficulty
intermediate
-------------------------------------------------------------------------------
                             HARD TO SWALLOW - You Me At Six
-------------------------------------------------------------------------------
Tabbed by: Cark

Tuning: Dropped D

(Start at 0:05)
(Intro)
G|---------|
D|---0320--|
A|-03----3-|
D|---------|

(1st Verse)
G|------------0-3-----------------------------------------------------------|
D|-------------3-0-00-0-0-00-0----------------0----0-0----------------------|
A|-1-11-3-3-33-----------------1-11-3-3-33030-------------------------------|
D|----------------------------------------------00-----00-0-----------------|

G|--------------------------------------------------------------------------|
D|----------0320-0-00-0-0-00-0----------------0----0-0----------------------|
A|-1-11-3-03----3--------------1-11-3-3-33030-------------------------------|
D|----------------------------------------------00------00000---------------|

(Pre-Chorus)
G|-----------------|
D|-----------------|
A|-33333333333333--|
D|-----------------|

(Chorus)
G|--------------------------------------------------------------------------|
D|---------------------------320-----0000000000000000-----------------------|
A|-----------------3333333333---3234----------------3333333333333333--------|
D|-3333333333333333---------------------------------------------------------|

(Post-Chorus)
G|--------------------------------------------------------------------------|
D|---------------0-00-0-0-00-0-----------320-00-0-0-------------------------|
A|-1-11-3-3-33030--------------1-11-3-3-3-----------------------------------|
D|--------------------------------------------------00-0--------------------|

(2nd Verse/Solo)
G|--------------------------------------------------------------------------|
D|---------------0-00-0-0-00-0---------------0----0-0-----------------------|
A|-1-11-3-3-33-3---------------1-11-3-3-33030-------------------------------|
D|---------------------------------------------00-----00-0------------------|

G|------------0-------------------------------------------------------------|
D|-------------320-00-0-0-00-0----------------0-00-0-0-00-0-----------------|
A|-1-11-3-3-33-----------------1-11-3-3-33030-------------------------------|
D|--------------------------------------------------------------------------|

(Pre-Chorus)
G|-----------------|
D|-----------------|
A|-33333333333333--|
D|-----------------|

(Chorus)
G|--------------------------------------------------------------------------|
D|---------------------------------0000000000000000-------------------------|
A|-----------------3333333333333333----------------3333333333333333---------|
D|-3333333333333333---------------------------------------------------------|

G|--------------------------------------------------------------------------|
D|---------------------------320----0000000000000000------------------------|
A|-----------------3333333333---3034----------------3333333333333333--------|
D|-3333333333333333---------------------------------------------------------|

(Bridge)
G|-------------------------------------|
D|-0~----------------------------------|
A|----------3~-------1~-------3~-------|
D|-------------------------------------|

G|-------------------------------------------------|
D|-0~-0~-0~-0~-------------------------------------|
A|-------------3~-3~-3~-3~-1~-1~-1~-1~-3~-3~-3~-3~-|
D|-------------------------------------------------|

G|--------------------------------------------------------------------------|
D|-0-0-0-0-0-0-0-0----------------------------------------------------------|
A|-----------------3-3-3-3-3-3-3-3-1-1-1-1-1-1-1-1-3-3-3-3-3-3-3-3----------|
D|--------------------------------------------------------------------------|

(End of Bridge/Pre-Chorus)
G|----------------------------------------|
D|-------------------0~-------------------|
A|----------3~----------------3~--3333333-|
E|-3~-------------------------------------|

G|--------------------------------------------------------------------------|
D|---------------------------------0000000000000000-------------------------|
A|-----------------3333333333333333----------------3333333333333333---------|
D|-3333333333333333---------------------------------------------------------|

G|--------------------------------------------------------------------------|
D|------------------------------320-0000000000000000------------------------|
A|-----------------333333333030----3----------------3333333333333333--------|
D|-3333333333333333---------------------------------------------------------|

G|--------------------------------|
D|-3~-----------------------------|
A|--------------------------------|
D|--------------------------------|


| /  slide up
| \  slide down
| h  hammer-on
| p  pull-off
| ~  vibrato
| +  harmonic
| x  Mute note
===============================================================================
comments
print report bad tab
I want to post or [tab]
guest
You may want to rate the tab now too:
select rating
Please do not post tabs as comments. Select "correction" instead!