Oops, an error
Loading. Please wait.

Jaws On The Floor bass

1,047 views 1 this week
2 commentsread comments
1 2 3 4 5
x 3
add to favorites
×
Save as Personal and add changes to this tab that will be seen only by you. Learn more ›
×
You can save this tab as Personal to edit and correct it or add notes. All changes will be seen only by you. Learn more »
launch autoscroll
font size
0
reset
guitar tuner
edit
Autoscroll
slow
fast
+/-
esc
set tempo
stop
Those are 10's not 1 and 0. Also, I'm missing a fill at the end of the chorus that I 
can't seem to get. If someone can figure that out, it would be much appreciated

Verse
G|---------------------------------------------|
D|---------------------------------------------|
A|---------------------------------------------| x2
D|-22-2-55-5-77-7--22-2-55-5-77-7-1010-10------|

Chorus
G|-------------------------------------------------------------|
D|-------------------------------------------------------------|
A|-------------------555555555-------------------55555555------|
D|-1010101010-555555-----------1010101010-555555---------------|

Verse 2
G|---------------------------------------------|
D|---------------------------------------------|
A|---------------------------------------------|
D|-22-2-55-5-77-7--22-2-55-5-77-7-1010-10------|

G|------------------------------------------------------------|
D|------------------------------------------------------------|
A|------------------------------------------------------------|
D|-22222-55555-77777--5--4--2222-55555-777777-10-10-----------|

Chorus
G|-------------------------------------------------------------|
D|-------------------------------------------------------------|
A|-------------------555555555-------------------55555555------|
D|-1010101010-555555-----------1010101010-555555---------------| x2

Bridge
G|-------------------------------------|     |-----------------|
D|-------------------------------------|     |-----------------|
A|-------------------------------------|     |----------55555--|
D|-1010101010-99999-22222-555555-------| x4  |-10101010--------|

Chorus
G|-------------------------------------------------------------|
D|-------------------------------------------------------------|
A|-------------------555555555-------------------55555555------|
D|-1010101010-555555-----------1010101010-555555---------------| x2

G|---------------|
D|---------------|
A|----------5~---|
D|-10~--5~-------|

            
            
Suggest correction
Creating personal tab
Creating personal tab
You can edit any tab online and save it as your Personal.

You can edit, replace or remove any tab part or add personal notes – all changes will be seen only by you.

Personal tabs can be accessed anytime from any device, even offline.
Learn more »
Give kudos to tab author, rate the tab!
1 2 3 4 5
comments
print report bad tab
2 comments total.
0 reply
maxpowweer 639 Mar 15, 2015 06:31 PM, edited at 10:39 pm

ChorusG|----------------------------------------------------------------|D|------------------------------------------------------3-5-3-----|A|-------------------555555555-------------------5555-5-------5-3-|D|-1010101010-555555-----------1010101010-555555------------------|This is what I came up with, not sure if it's exactly what they guy originally plays, but it fits pretty well.
You would play the little doodle just before "Oh when you decide to cut the strings..."

guest
You may want to rate the tab now too:
select rating
Wanna post a correction for this tab? Suggest correction