Oops, an error
Loading. Please wait.

Loverboy Acoustic Tab

1,319 views 1 this week
2 commentsread comments
1 2 3 4 5
please rate
add to favorites
launch autoscroll
font size
0
reset
how to read this tab
guitar tuner
Autoscroll
slow
fast
+/-
esc
set tempo
stop
Help us to improve Ultimate-Guitar.com Take our survey!
×
Author
I worked this out and it sounds accurate but people have been asking for a tab so yeah, 
enjoy. (sorry for this, first time tabbing)

e-------------------------------------13-15-15-15-15p13---13-----|
B-------------------------------13----------------------15-------|
G---------------------10/12/14-----------------------------------|
D---12----------10h12--------------------------------------------|
A-------10h12----------------------------------------------------|
D----------------------------------------------------------------|

e----------------------------------------------------------------------|
B--13-15-15-15-13h15--------15-----------------------------------------|
G--------------------14---14--14-12--10h12-12-12-12p10-----------10----|
D------------------------------------------------------12-10h12-----12-|
A----------------------------------------------------------------------|
D----------------------------------------------------------------------|

Sorry if its bad, it sounds good to play, please change and improve this if needed! thanks!
Suggest correction
Give kudos to tab author, rate the tab!
1 2 3 4 5
comments
print report bad tab
2 comments total.
0 reply
Frask3r 51 wrote on August 22 2013, 07:45 am

I think there are lots of mistakes but it gave me a basic Idea where to start with the Solo :) Check out my Guitar Pro Solo tab for a more precise version :)
Thanks anyways :)

0 reply
danielski99 162 wrote on October 11 2013, 05:31 pm

Sorry for the mistakes, here's the correct version! a new tab will be up soon!

e----------------------------------13h15-15-15-15p13------13--------|
B--------------------------------13-------------------15------------|
G---------------------10/12/14--------------------------------------|
D---12----------10h12-----------------------------------------------|
A-------10h12-------------------------------------------------------|
D-------------------------------------------------------------------|

e----------------------------------------------------------------------|
B--13h15-15-15-13h15--------15-----------------------------------------|
G--------------------14---14--12-----10h12-12--10h12---------10--------|
D-----------------------------------------------------10h12-----10h12--|
A----------------------------------------------------------------------|
D----------------------------------------------------------------------|

guest
You may want to rate the tab now too:
select rating
Wanna post a correction for this tab? Suggest correction