Oops, an error
Loading. Please wait.

Loverboy Tab

version 2
version 2

Whole song

Interactive

67,708 views 48 this week
8 commentsread comments
1 2 3 4 5
x 27
add to favorites
launch autoscroll
font size
0
reset
how to read this tab
guitar tuner
×
Best way to learn
"Loverboy"
Autoscroll
slow
fast
+/-
esc
set tempo
stop
Author
Difficulty
Tuning
novice
D A D G B E
Tuning: Drop D

[Intro Guitar]
e|---------------------------------------------------------------------|
B|---------------------------------------------------------------------|
G|---------------------------------------------------------------------|
D|---------3-2-0---0---------------------------------------------------|
A|---0h3h5-------3-----------------------------------------------------|
D|-------------------0-------------------------------------------------|

(x3)
G|--------------------------------------|
D|--------3-2-0---0---------------------|
A|--0h3h5-------3-----------------------|
D|------------------0-------------------|

[Verse]
e|--------------------------------|
B|--------------------------------|
G|--------------------------------|   (x8)
D|---------3-2-0---0--------------|         
A|---0h3h5-------3------0---------|
D|----------------------0---------|

[Chorus] 
e|-----------------------------------------------------|
B|-----------------------------------------------------|
G|-----------------------------------------------------|
D|----8----10----0--------8----3----10-----------------|
A|----8x4--10x4--0x8------8x4--3x4--10x6---------------|
D|----8----10----0--------8----3----10-----------------|

[Verse]
e|--------------------------------|
B|--------------------------------|
G|--------------------------------|   (x8)
D|---------3-2-0---0--------------|         
A|---0h3h5-------3------0---------|
D|----------------------0---------|

[Chorus 2]
e|-----------------------------------------------------|
B|-----------------------------------------------------|
G|-----------------------------------------------------|
D|----8----10----0--------8----3----10-----------------| (x2)
A|----8x4--10x4--0x8------8x4--3x4--10x6---------------|
D|----8----10----0--------8----3----10-----------------|

[Bridge]
e|-------------------------------------------------|
B|-------------------------------------------------|
G|-------------------------------------------------|
D|---1212-12\--1010-10\--88-8\--3-3-3-3------------|  (x2)
A|---1212-12\--1010-10\--88-8\--3-3-3-3------------|
D|---1212-12\--1010-10\--88-8\--3-3-3-3------------|

[Guitar Solo]
e|--------------------------------------------------------|
B|--------------------------------------------------------|
G|-----------------10-12----10-12-----12b----10-12-10-----|
D|--------10-12~---------12-------12------------------12--|
A|----/12-------------------------------------------------|
D|--------------------------------------------------------|

e|-------------------------------13-15b-13-15b-13-15b-13-15b--13-15-13-----|
B|--/8-10-8-10-8-10-8-10-8-10------------------------------------------15~-|
G|-------------------------------------------------------------------------|
D|-------------------------------------------------------------------------|
A|-------------------------------------------------------------------------|
D|-------------------------------------------------------------------------|

[Chorus 2]
e|-----------------------------------------------------|
B|-----------------------------------------------------|
G|-----------------------------------------------------|
D|----8----10----0--------8----3----10-----------------| (x2)
A|----8x4--10x4--0x8------8x4--3x4--10x6---------------|
D|----8----10----0--------8----3----10-----------------|


************************************

| h  Hammer-on
| x  Dead note
| \  Slide down
| b  Bend
| ~  Vibrato
| /  Slide up

************************************
Suggest correction
comments
print report bad tab
8 comments total. Showing first comments.
+2 reply
Zaslamel4299 10 Sep 03, 2011 01:00 PM

I found it much easier doing it like this, I sorta did it naturally and its the same thing as yours, but this way your more into the rhythm of the hammer ons for the first part, and its also less confusing on your brain doing it this way. Great tab, though. :D

e|---------------------------------------------------------------------|
B|---------------------------------------------------------------------|
G|---------------------------------------------------------------------|
D|---------3-2-0-------------------------------------------------------|
A|---0h3h5-------3-5---------------------------------------------------|
D|-------------------0-------------------------------------------------|

0 reply
Venzetti 31 Sep 10, 2011 06:28 AM

I'm not an expert by any means but am I think the riff actually plays an open a at the end instead of D, it just sounds right to me, I could be wrong doe haha.

Good tab none the less!

+1 reply
Venzetti 31 Sep 10, 2011 06:52 AM

wait wait I think I know why both open D and open a work :) it's probs an open D power chord haha. *stupid me*

guest
You may want to rate the tab now too:
select rating
Wanna post a correction for this tab? Suggest correction