Oops, an error
Loading. Please wait.

Loverboy Tab

version 2
version 2

Whole song

Interactive

66,316 views 99 this week
8 commentsread comments
1 2 3 4 5
x 26
add to favorites
launch autoscroll
font size
0
reset
how to read this tab
guitar tuner
Autoscroll
slow
fast
+/-
esc
set tempo
stop
Help us to improve Ultimate-Guitar.com Take our survey!
×
Author
Difficulty
Tuning
novice
D A D G B E
-----------------------------------------------------------------------------
                             Loverboy - You Me At Six
-----------------------------------------------------------------------------
Tabbed by: Kyle Simpson
Email: Kyle.david1@btinternet.com

Tuning: Drop D

Intro Guitar

e|---------------------------------------------------------------------|
B|---------------------------------------------------------------------|
G|---------------------------------------------------------------------|
D|---------3-2-0---0---------------------------------------------------|
A|---0h3h5-------3-----------------------------------------------------|
D|-------------------0-------------------------------------------------|

then bass plays riff 3 times

G|--------------------------------------|
D|--------3-2-0---0---------------------|
A|--0h3h5-------3-----------------------|
D|------------------0-------------------|

Verse

e|--------------------------------|
B|--------------------------------|
G|--------------------------------|    X 8
D|---------3-2-0---0--------------|         
A|---0h3h5-------3------0---------|
D|----------------------0---------|

Chorus

not sure how many times you play each chord, listen to song
 
e|-----------------------------------------------------|
B|-----------------------------------------------------|
G|-----------------------------------------------------|
D|----8----10----0--------8----3----10-----------------|
A|----8x4--10x4--0x8------8x4--3x4--10x6---------------|
D|----8----10----0--------8----3----10-----------------|

(2nd verse the same)

2nd Chorus

e|-----------------------------------------------------|
B|-----------------------------------------------------|
G|-----------------------------------------------------|
D|----8----10----0--------8----3----10-----------------| x 2
A|----8x4--10x4--0x8------8x4--3x4--10x6---------------|
D|----8----10----0--------8----3----10-----------------|

Bridge
  
e|-------------------------------------------------|
B|-------------------------------------------------|
G|-------------------------------------------------|
D|---1212-12\--1010-10\--88-8\--3-3-3-3------------| x 2
A|---1212-12\--1010-10\--88-8\--3-3-3-3------------|
D|---1212-12\--1010-10\--88-8\--3-3-3-3------------|

Guitar Solo

e|--------------------------------------------------------|
B|--------------------------------------------------------|
G|-----------------10-12----10-12-----12b----10-12-10-----|
D|--------10-12~---------12-------12------------------12--|
A|----/12-------------------------------------------------|
D|--------------------------------------------------------|

e|-------------------------------13-15b-13-15b-13-15b-13-15b--13-15-13-----|
B|--/8-10-8-10-8-10-8-10-8-10------------------------------------------15~-|
G|-------------------------------------------------------------------------|
D|-------------------------------------------------------------------------|
A|-------------------------------------------------------------------------|
D|-------------------------------------------------------------------------|

(final chorus same as 2nd chorus)

Well that's it :) its about 99% correct if you have any improvements email me :D 

Suggest correction
comments
print report bad tab
8 comments total. Showing first comments.
+2 reply
Zaslamel4299 10 Sep 03, 2011 05:00 PM

I found it much easier doing it like this, I sorta did it naturally and its the same thing as yours, but this way your more into the rhythm of the hammer ons for the first part, and its also less confusing on your brain doing it this way. Great tab, though. :D

e|---------------------------------------------------------------------|
B|---------------------------------------------------------------------|
G|---------------------------------------------------------------------|
D|---------3-2-0-------------------------------------------------------|
A|---0h3h5-------3-5---------------------------------------------------|
D|-------------------0-------------------------------------------------|

0 reply
Venzetti 31 Sep 10, 2011 10:28 AM

I'm not an expert by any means but am I think the riff actually plays an open a at the end instead of D, it just sounds right to me, I could be wrong doe haha.

Good tab none the less!

+1 reply
Venzetti 31 Sep 10, 2011 10:52 AM

wait wait I think I know why both open D and open a work :) it's probs an open D power chord haha. *stupid me*

guest
You may want to rate the tab now too:
select rating
Wanna post a correction for this tab? Suggest correction