Oops, an error
Loading. Please wait.

Loverboy Bass Tab

version 4
version 4

Whole song

Interactive

297 views 1 this week
no commentswrite comment
1 2 3 4 5
3 more votes to show rating
add to favorites
launch autoscroll
font size
0
reset
guitar tuner
Autoscroll
slow
fast
+/-
esc
set tempo
stop
Help us to improve Ultimate-Guitar.com Take our survey!
×
Author
Difficulty
Tuning
novice
D A D G B E
You Me At Six 

Lover Boy



Verse (Riff played throughout)
G|---------------------------------------------------------------|
D|--------3/2----------------------------------------------------|
A|--0h3h5----3/5-----5-------------------------------------------|x12
D|-----------------0-0-------------------------------------------|


Pre Chorus
G|---------------------------------------------------------------|
D|--------3/2----------------------------------------------------|
A|--0h3h5----3/1-------------------------------------------------|
D|---------------------------------------------------------------|


Chorus
G|---------------------------------------------------------------|
D|------------------3/2------------------------------------------|
A|111-3333--5-5-5-------3/1111-----3333--------------------------|
D|---------0-0-0--------------3333-------------------------------|


Verse
G|---------------------------------------------------------------|
D|--------3/2----------------------------------------------------|
A|--0h3h5----3/5-----5-------------------------------------------|x5
D|-----------------0-0-------------------------------------------|


Pre Chorus
G|---------------------------------------------------------------|
D|--------3/2----------------------------------------------------|
A|--0h3h5----3/1-------------------------------------------------|
D|---------------------------------------------------------------|


Chorus
G|---------------------------------------------------------------|
D|------------------3/2------------------------------------------|
A|111-3333--5-5-5-------3/1111-----3333/12(x7)-------------------|
D|---------0-0-0--------------3333-------------------------------|

G|---------------------------------------------------------------|
D|------------------3/2------------------------------------------|
A|-1111-3333--5-5-5-------3/1111-----3333------------------------|
D|-----------0-0-0--------------3333-----------------------------|


Breakdown
G|---------------------------------------------------------------|
D|---------------------------------------------------------------|
A|--5555-3333----------------------------------------------------|x2
D|-----------------8888-3333-------------------------------------|


Solo
G|---------------------------------------------------------------|
D|---------------------------------------------------------------|
A|--5555-3333-1111------5555-3333-1111---------------------------|
D|-----------------3333----------------3333-0~-------------------|


Riff
G|---------------------------------------------------------------|
D|--------3/2----------------------------------------------------|
A|--0h3h5----3/5-----5-------------------------------------------|x4
D|-----------------0-0-------------------------------------------|

G|---------------------------------------------------------------|
D|--------3/2----------------------------------------------------|
A|--0h3h5----3/1-------------------------------------------------|
D|---------------------------------------------------------------|



Chorus
G|---------------------------------------------------------------|
D|------------------3/2------------------------------------------|
A|111-3333--5-5-5-------3/1111-----3333/12(x7)-------------------|
D|---------0-0-0--------------3333-------------------------------|

G|---------------------------------------------------------------|
D|------------------3/2------------------------------------------|
A|-1111-3333--5-5-5-------3/1111-----3333------------------------|
D|-----------0-0-0--------------3333-----------------------------|

G|---------------------------------------------------------------|
D|--------3/2----------------------------------------------------|
A|--0h3h5----3/5-----5-------------------------------------------|
D|-----------------0-0-------------------------------------------|

(let note ring)
Suggest correction
Give kudos to tab author, rate the tab!
1 2 3 4 5
comments
print report bad tab
guest
You may want to rate the tab now too:
select rating
Wanna post a correction for this tab? Suggest correction