Oops, an error
Loading. Please wait.

Night People tab

version 1
version 1

Whole song

Video

2,218 views 15 this week
no commentswrite comment
1 2 3 4 5
x 3
add to favorites
×
Save as Personal and add changes to this tab that will be seen only by you. Learn more ›
×
You can save this tab as Personal to edit and correct it or add notes. All changes will be seen only by you. Learn more »
launch autoscroll
font size
0
reset
how to read this tab
guitar tuner
edit
Autoscroll
slow
fast
+/-
esc
set tempo
stop
Author
Difficulty
I'm going to include the parts with only one guitar under guitar 1. Guitar 2 either plays the same thing
in some parts or is silent.


[Intro]
Guitar 1

e|---------------------------------------------------------------------------|
B|---------------------------------------------------------------------------|
G|---------------------------------------------------------------------------|
D|----7---5------------------------------------------------------------------|
A|----7---5-----------7--7--5------------------------------------------------|
E|----5---3--------0-----------7--5-------5--7--5--3-------------------------|
                  (                                 )X4

Guitar 2 is the same but on the last time play this

e|---------------------------------------------------------------------------|
B|---------------------------------------------------------------------------|
G|---------------------------------------------------------------------------|
D|----7br--------------------------------------------------------------------|
A|---------------------------------------------------------------------------|
E|---------------------------------------------------------------------------|


[Verse]

There is also a bass that plays pretty much the same thing throughout the verse.

e|---------------------------------------------------------------------------|
B|---------------------------------------------------------------------------|
G|---------------------------------------------------------------------------|
D|--------2------------------------------------------------------------------|
A|---------------------------------------------------------------------------|
E|---0-----------------------------------------------------------------------|
          Say no more...

e|-----------------------------12b-------------------------------------------|
B|---------------------------------------------------------------------------|
G|---------------------------------------------------------------------------|
D|---------------------------------------------------------------------------|
A|---------------------------------------------------------------------------|
E|---------------------------------------------------------------------------|
       Take the call...

Whole thing repeated twice

[Pre-chorus]

e|---------------------------------------12b---------------------------------|
B|---------------------------------------------------------------------------|
G|----7b-7-7-----------------7b-7-7------------------------------------------|
D|--------------7br--5-------------------------------------------------------|
A|----------------------7----------------------------------------------------|
E|---------------------------------------------------------------------------|

Repeat this twice


[Chorus]

Guitar 1

e|---------------------------------------------------------|
B|---------------------------------------------------------|
G|---------------------------------------------------------|
D|---------------------------------------------------------|
A|---------------------------------------------------------|
E|---0--0--0--7--5------5--7--5--3---0--0--0--7--5---------| X2

Guitar 2

e|-------------------------------------------------------15--15------15------|
B|---17--17--17--17--17--17--17--17--17--17--17--17--17----------17------17--|
G|---------------------------------------------------------------------------|
D|---------------------------------------------------------------------------|
A|---------------------------------------------------------------------------|
E|---------------------------------------------------------------------------|
    (           only played the second time            )


[Verse] 

This time exactly the same with an open E string played at the start of each bar


[Pre-chorus] 

Also exactly the same as the first


[Chorus] 

The same but twice as long with a bend on 7 on the D string at the end just like the end of
the intro. There's also this little bit after that

e|--------------------------------|
B|--------------------------------|
G|--------------------------------|
D|--------------------------------|
A|--------------------------------|
E|---0/5---5--3-------------------|


[Bridge]

Guitar 1

e|---------------------------------------------------------------------------|
B|---------------------------------------------------------------------------|
G|---------------------------------------------------------------------------|
D|-----7----5------------------------------------7----5----------------------|
A|-----7----5------------------------------------7----5----------------------|
E|-----5----3------------------------------------5----3----------------------|

e|---------------------------------------------------------------------------|
B|---------------------------------------------------------------------------|
G|---------------------------------------------------------------------------|
D|-----------------------------------------7--5---7--5---7--5----------------|
A|-----------------------------------------7--5---7--5---7--5----------------|
E|---0----------------12------------0/5----5--3---5--3---5--3----------------|

Guitar 2 comes in at about 2:21 
It's literally just the same note repeated until the power chords come back in

e|---------------------------------------------------------------------------|
B|--17--17--17--17--17--17--17--17--17--17--17--17--17--17-------------------|
G|---------------------------------------------------------------------------|
D|---------------------------------------------------------------------------|
A|---------------------------------------------------------------------------|
E|---------------------------------------------------------------------------|

Final chorus is exactly the same mostly apart from the open notes are not there at the start of it.

The only other thing you need is the lead that goes over the "woooaah" parts and the final 2 chords are
the A ans G power chords that are all over the song.

e|---------------------------------------------------------------------------|
B|---------------------------------------------------------------------------|
G|----/16--14--12------------------------------------------------------------|
D|----------------14---------------------------------------------------------|
A|---------------------------------------------------------------------------|
E|---------------------------------------------------------------------------|


************************************

| b   Bend
| br  Bend release
| /   Slide up

************************************

            
            
Suggest correction
Creating personal tab
Creating personal tab
You can edit any tab online and save it as your Personal.

You can edit, replace or remove any tab part or add personal notes – all changes will be seen only by you.

Personal tabs can be accessed anytime from any device, even offline.
Learn more »
Give kudos to tab author, rate the tab!
1 2 3 4 5
comments
print report bad tab
guest
You may want to rate the tab now too:
select rating
Wanna post a correction for this tab? Suggest correction