Oops, an error
Loading. Please wait.

Night People Tab

version 2
version 2

Whole song

Video

529 views 24 this week
no commentswrite comment
1 2 3 4 5
x 5
add to favorites
launch autoscroll
font size
0
reset
how to read this tab
guitar tuner
Autoscroll
slow
fast
+/-
esc
set tempo
stop
Help us to improve Ultimate-Guitar.com Take our survey!
×
Author
Difficulty
novice
[Lead in]

e|-------|
B|-------|
G|-------|
D|-------|
A|-------|
E|--5-3--|


[Intro]

e|------------------------|
B|------------------------|
G|------------------------|
D|------------------------|
A|----7-7p5---------------|
E|-0--------7-5---5-7-5-3-| x3

e|------------------------|
B|------------------------|
G|------------------------|
D|----------------7b9-7---|
A|----7-7p5---------------|
E|-0--------7-5-----------|


[Prechorus]

e|--------------------|--------------12---|
B|----5-5-------------|----5-5------------|
G|-7b-----------------|-7b----------------|
D|----------7b9-7p5---|-------------------|  x2
A|------------------7-|-------------------|
E|--------------------|-------------------|


[Chorus]

e|-----------------|-------------------|
B|-----------------|-------------------|
G|-----------------|-------------------|
D|-----------------|-------------------|  x2
A|-2--9-7----------|-2--9-7------------|
E|-0--7-5--5-7-5-3-|-0--7-5------------| 


[Verse 2]

e|-----------------|
B|-----------------|
G|-----------------|
D|-----------------|  x4
A|-2---------------|
E|-0---------------|  
   1 + 2 + 3 + 4 +

e|----------------------------------|
B|----------------------------------|
G|----------------------------------|
D|----------------------------------|  x2
A|-2---------------2-----2----------|
E|-0---------------0-----0----------|
   1 + 2 + 3 + 4 + 1 + 2 + 3 + 4 + 


[Chorus]

e|-----------------|-------------------|
B|-----------------|-------------------|
G|-----------------|-------------------|
D|----4-2----------|----4-2------------|
A|-2--2-0--0-2-0---|-2--2-0------------|
E|-0-------------3-|-0-----------------|  x2


[Post Chorus]

e|------------------------|
B|------------------------|
G|------------------------|
D|------------------------|
A|----7-7p5---------------|
E|-0--------7-5---5-7-5-3-| x3

e|------------------------|
B|------------------------|
G|------------------------|
D|----------------7b9-7---|
A|----7-7p5---------------|
E|-0--------7-5-----------|


[Bridge]

e|---------------------------------| 
B|---------------------------------| 
G|---------------------------------|
D|---------------------------------| 
A|-2-------------------------------| 
E|-0---------------------------5-3-| 
   1 + 2 + 3 + 4 + 1 + 2 + 3 + 4 +    

e|---------------------------------|
B|---------------------------------|
G|---------------------------------|
D|---------------------------------|  x2
A|---------------------------------|
E|-----------------------------5-3-|
   1 + 2 + 3 + 4 + 1 + 2 + 3 + 4 +  

e|---------------------------------|---------------------------------|
B|---------------------------------|---------------------------------|
G|---------------------------------|---------------------------------|
D|---------------------------------|---------------------------------|
A|-2-------------------------------|---------------------------------|
E|-0-------------------------------|-----------------5-3-5-3-5-3-----|
   1 + 2 + 3 + 4 + 1 + 2 + 3 + 4 +   1 + 2 + 3 + 4 + 1 + 2 + 3 + 4 +


[Chorus]

e|------------------------|
B|------------------------|
G|------------------------|
D|------------------------|
A|----7-7p5---------------|
E|----------7-5---5-7-5-3-|

e|------------------------|
B|------------------------|
G|------------------------|
D|------------------------|
A|----7-7p5---------------|
E|-0--------7-5---5-7-5-3-| x2

e|----------------12------|
B|------------------------|
G|------------------------|
D|------------------------|
A|----7-7p5---------------|
E|-0--------7-5-----------|


[Post Chorus]

e|------------------------|
B|------------------------|
G|------------------------|
D|------------------------|
A|----7-7p5---------------|
E|-0--------7-5---5-7-5-3-| x3

e|------------------------|
B|------------------------|
G|------------------------|
D|------------------------|
A|----7-7p5---------------|
E|-0--------7-5--5-3--5-3-|
Suggest correction
comments
print report bad tab
guest
You may want to rate the tab now too:
select rating
Wanna post a correction for this tab? Suggest correction