Oops, an error
Loading. Please wait.

No One Does It Better intro tab

version 1
version 1

Intro

Whole song

7,865 views 1 this week
1 commentread comment
1 2 3 4 5
x 3
add to favorites
×
Save as Personal and add changes to this tab that will be seen only by you. Learn more ›
×
You can save this tab as Personal to edit and correct it or add notes. All changes will be seen only by you. Learn more »
launch autoscroll
font size
0
reset
how to read this tab
guitar tuner
edit
Autoscroll
slow
fast
+/-
esc
set tempo
stop
Difficulty
Done by ear... Pretty sure it's right!
Standard Tuning - no capo
In the song there is two guitars playing but this is the melody for the first one. It 
also goes like this throughout the verse.
Enjoy ;)

e|--------------------------------------------------------------------------|
B|--------8---7----7---5--------5--5---5--5---------------------------------|
G|--------------------------------------------------------------------------|
D|--------------------------------------------------------------------------|
A|---7----------------------------------------------------------------------|
E|--------------------------------------------------------------------------|

e|-------------------7------------------------------------------------------|
B|---8---8------7-----------------------------------------------------------|
G|-----------------------9--------------------------------------------------|
D|--------------------------------------------------------------------------|
A|--------------------------------------------------------------------------|
E|--------------------------------------------------------------------------|
Suggest correction
Creating personal tab
Creating personal tab
You can edit any tab online and save it as your Personal.

You can edit, replace or remove any tab part or add personal notes – all changes will be seen only by you.

Personal tabs can be accessed anytime from any device, even offline.
Learn more »
Give kudos to tab author, rate the tab!
1 2 3 4 5
comments
print report bad tab
1 comment total.
0 reply
tab-me101 10 May 20, 2012 08:13 AM

e|--------------------------------------------------------------------------|
B|--------8---7----12---5--------5--5---5--5---------------------------------|
G|--------------------------------------------------------------------------|
D|--------------------------------------------------------------------------|
A|---7----------------------------------------------------------------------|
E|--------------------------------------------------------------------------|

e|-------------------7------------------------------------------------------|
B|---8---8------7-----------------------------------------------------------|
G|-----------------------9--------------------------------------------------|
D|--------------------------------------------------------------------------|
A|--------------------------------------------------------------------------|
E|--------------------------------------------------------------------------|
just change the second 7 to a fret 12

guest
Wanna post a correction for this tab? Suggest correction