Oops, an error
Loading. Please wait.

Starry Eyed Chords

version 1
version 1

Whole song

20,211 views 3 this week
2 commentsread comments
1 2 3 4 5
x 6
add to favorites
launch autoscroll
font size
0
reset
transpose
0
reset
simplify chords
display chords
guitar tuner
Autoscroll
slow
fast
+/-
esc
set tempo
stop
Help us to improve Ultimate-Guitar.com Take our survey!
×
Author
Difficulty
-------------------------------------------------------------------------------
             Starry Eyed (Live Lounge Cover) - You Me At Six
-------------------------------------------------------------------------------
Tabbed by: John Toomey (My first tab, be nice!)
Email: littlerockerdude@live.co.uk

Tuning: Standard (e B G D A e)
**CAPO on the first fret for this song**

Intro:

1 strum of Em7 followed by

e|--------|
B|--------|
G|--------|
D|--------|
A|--------|
E|-0-2-3--| X6

Verse:

Em7 - D - Cadd9 - G

Work out the strumming pattern for yourself, its a really simple one to pick up!

Chorus:

Em7 - D - Cadd9 - G

Same chords as the verse, but a different strumming pattern. Same timing, though.

Interlude:

e|----3-----------3-------|
B|--3---3---3---3---3---3-|
G|0-------0---0-------0---|
D|------------------------|
A|------------------------|  REPEAT A FEW TIMES!
E|------------------------|

The main chord progression (for verse and chorus) is repeated throughout the whole song 
you could almost get away with just playing that, for the most part!

Be sure to end on Em7 ...
Suggest correction
comments
print report bad tab
2 comments total.
0 reply
cremated20 10 Jul 27, 2011 06:39 AM

Intro sounds more like
e|--------|
B|--------|
G|--------|
D|--------|
A|--------|
E|-0-3-5--| X6

And the interlude:

e|----3-----------3-------|
B|--3---3---3---3---3---3-|
G|5-------5---4-------4---|
D|------------------------|
A|------------------------|
E|------------------------|

Nice chords though :)

0 reply
ajbolton202 10 Jun 27, 2015 04:14 PM

I'm sorry.. but what is the strumming pattern? :3

guest
You may want to rate the tab now too:
select rating
Wanna post a correction for this tab? Suggest correction