Oops, an error
Loading. Please wait.

Stay With Me tab

version 6
version 6
16,020 views 6 this week
1 commentread comment
1 2 3 4 5
x 11
add to favorites
×
Save as Personal and add changes to this tab that will be seen only by you. Learn more ›
×
You can save this tab as Personal to edit and correct it or add notes. All changes will be seen only by you. Learn more »
launch autoscroll
font size
0
reset
how to read this tab
guitar tuner
edit
Autoscroll
slow
fast
+/-
esc
set tempo
stop
comment and rate this tab!!!
You me at six, stay with me

Guitar 1:
e|--------------------------------------------------|
B|--------------------------------------------------|
G|----7-7-7----5-5-5------3-3-3---------------------|
D|----7-7-7----5-5-5 -----3-3-3---------------------|
A|----5-5-5----3-3-3------1-1-1---------------------|
D|--------------------------------------------------|  X2

Guitar 2
e|--------------------------------------------------|
B|---6-10-8-6---------------------------------------|
G|--------------------------------------------------|
D|--------------------------------------------------|
A|--------------------------------------------------|
D|--------------------------------------------------| X8


Guitar 1:OPEN D

e|--------------------------------------------------|
B|--------------------------------------------------|
G|--------------------------------------------------|
D|--0-----------------------------------------------|
A|--0-----------------------------------------------|
D|--0-----------------------------------------------|




VERSE 


e|--------------------------------------------------------------|
B|------6---------------5---------------10----------------------|
G|-------------------------5------------10----------------------|
D|----7----7---------5------------------------------------------|
A|-5--------------3------------------8--------------------------|
D|-------------------------------8------------------------------| X7


A OPEN D


CHORUS 1:


Guitar 1:
e|----------------------------------------------------------|
B|----------------------------------------------------------|
G|----7-7-7----5-5-5------3-3-3---7-7-7---10-10-10---3-3-3--|
D|----7-7-7----5-5-5 -----3-3-3---7-7-7---10-10-10---3-3-3--|
A|----5-5-5----3-3-3------1-1-1---5-5-5---8-8-8-----1-1-1---|
E|----------------------------------------------------------|  X1
Guitar 2
e|--------------------------------------------------|
B|---6-10-8-6---------------------------------------|
G|--------------------------------------------------|
D|--------------------------------------------------|
A|--------------------------------------------------|
D|--------------------------------------------------| X8


VERSE 2

e|--------------------------------------------------------------|
B|------6---------------5---------------10----------------------|
G|-------------------------5------------10----------------------|
D|----7----7---------5------------------------------------------|
A|-5--------------3------------------8--------------------------|
D|-------------------------------8------------------------------| X4

2nd part of verse2
e|---1111-5555-1111-3333-1111-5~---------------------------|
B|---------------------------------------------------------|
G|---------------------------------------------------------|
D|---------------------------------------------------------| 
A|---------------------------------------------------------|
D|---------------------------------------------------------| x2

D PALM MUTED!



e|----------------------------------------------------------|
B|----------------------------------------------------------|
G|----7-7-7----5-5-5------3-3-3---7-7-7---10-10-10---3-3-3--|
D|----7-7-7----5-5-5 -----3-3-3---7-7-7---10-10-10---3-3-3--|
A|----5-5-5----3-3-3------1-1-1---5-5-5---8-8-8-----1-1-1---|
E|----------------------------------------------------------|  X2

Guitar 2
e|--------------------------------------------------|
B|---6-10-8-6---------------------------------------|
G|--------------------------------------------------|
D|--------------------------------------------------|
A|--------------------------------------------------|
D|--------------------------------------------------| X16


BRIDGE

GUITAR 1
e|--------------------------------------------------|
B|--------------------------------------------------|
G|--------------------------------------------------|
D|----3------5---------0----------------------------|
A|----3--X8--5--X8-----0--X16-----------------------|
E|----3------5---------0----------------------------| X4

GUITAR 2
e|---------------------------------------------------------|
B|---6h8-6-10-6h8-6-10-6--6666-8888-10101010-8888-8h10-6---|
G|---------------------------------------------------------|
D|---------------------------------------------------------|
A|---------------------------------------------------------|
D|---------------------------------------------------------| 
                                                                              } 2x
e|-----------------------5555-6666-88888888-----------------|
B|---6h8-6-10-6h8-6-10-6------------------------------------|
G|----------------------------------------------------------|
D|----------------------------------------------------------|
A|----------------------------------------------------------|
D|----------------------------------------------------------| 



Guitar 1: OPEN D

Guitar 2:

e|---------------------------------------------------------------|
B|------6---------------6-------------6--------------------------|
G|-------------------------7--------------(--7-----)-------------|
D|----7----7---------7-------------7------(-----X5-)-------------|
A|-5--------------5------------5----------(--5-----)-------------|
E|---------------------------------------------------------------| X1


CHORUS:


e|--------------------------------------------------|
B|--------------------------------------------------|
G|----7-7-7----5-5-5------3-3-3---------------------|
D|----7-7-7----5-5-5 -----3-3-3---------------------|
A|----5-5-5----3-3-3------1-1-1---------------------|
E|--------------------------------------------------|  X4

Guitar 2
e|--------------------------------------------------|
B|---6-10-8-6---------------------------------------|
G|--------------------------------------------------|
D|--------------------------------------------------|
A|--------------------------------------------------|
D|--------------------------------------------------| X16

            
            
Suggest correction
Creating personal tab
Creating personal tab
You can edit any tab online and save it as your Personal.

You can edit, replace or remove any tab part or add personal notes – all changes will be seen only by you.

Personal tabs can be accessed anytime from any device, even offline.
Learn more »
comments
print report bad tab
1 comment total.
0 reply
Alexian3007 1,068 Feb 07, 2014 10:16 AM

Here's the lead part for the bridge that no one else can seem to hear

-------------------------------------------------------------
------5-----------3--151515-10101010-111111-101010-11p10-----
--------5-------5---------------------------------------10---
--------------5----------------------------------------------
-3h5-3------3------------------------------------------------
-------------------------------------------------------------

---------------------------------------------------
------5-----------3--151515-10101010-111111-12-----
--------5--------5---------------------------------
---------------5-----------------------------------
-3h5-3-------3-------------------------------------
---------------------------------------------------

guest
You may want to rate the tab now too:
select rating
Wanna post a correction for this tab? Suggest correction