Oops, an error
Loading. Please wait.

Take Off Your Colours bass

2,606 views 1 this week
no commentswrite comment
1 2 3 4 5
x 3
add to favorites
×
Save as Personal and add changes to this tab that will be seen only by you. Learn more ›
×
You can save this tab as Personal to edit and correct it or add notes. All changes will be seen only by you. Learn more »
launch autoscroll
font size
0
reset
guitar tuner
edit
Autoscroll
slow
fast
+/-
esc
set tempo
stop
Drop D tuning
This is my first tab so go easy :D
Any corections please send me an email at toadfaulkner@hotmail.co.uk

Intro 0:16 seconds

G|---------------------------------------|
D|---------------------------------------|
G|---------------------------------------|
D|55555555-77777777-3333333333333333-----|   x 2


G|---------------------------------------|
D|---------------------------------------|
G|---------------------------------------|
D|5~-------------------------------------|

Verse 0:32 seconds
G|---------------------------------------|
D|---------------------------------------|
G|---------------------------------------|
D|55555555-33333333-1111111111111111-----|     x4

chorus 0:53 seconds
G|---------------------------------------|
D|---------------------------------------|
G|55-77-99-------33-55-77----------------|
D|---------7--5-----------7--5-----------|

G|---------------------------------------|
D|---------------------------------------|
G|55-77-99-------33-55-7777777777--------|
D|---------7--5--------------------------|

Repeat Verse 1:15 x4 then

Then Intro x4

Then Chorus


G|---------------------------------------|
D|---------------------------------------|
G|---------------------------------------|
D|5~-------------------------------------|

2:24

G|---------------------------------------|
D|---------------------------------------|
G|---------------------------------------|
D|555555555555-333333333333--------------| x2

G|---------------------------------------|
D|---------------------------------------|
G|---------------------------------------|
D|5~----7~-----3~------------------------|

G|---------------------------------------|
D|---------------------------------------|
G|---------------------------------------|
D|5~----7~-----3-------------------------|

Then Intro x4

Then

G|---------------------------------------|
D|---------------------------------------|
G|55-77-99-------------------------------|
D|---------7--5-5555---------------------|


The End :D

            
            
Suggest correction
Creating personal tab
Creating personal tab
You can edit any tab online and save it as your Personal.

You can edit, replace or remove any tab part or add personal notes – all changes will be seen only by you.

Personal tabs can be accessed anytime from any device, even offline.
Learn more »
Give kudos to tab author, rate the tab!
1 2 3 4 5
comments
print report bad tab
guest
Wanna post a correction for this tab? Suggest correction