Oops, an error
Loading. Please wait.

The Consequence tab

version 7
version 7

Interactive

206 views 3 this week
no commentswrite comment
1 2 3 4 5
2 more votes to show rating
add to favorites
×
Save as Personal and add changes to this tab that will be seen only by you. Learn more ›
×
You can save this tab as Personal to edit and correct it or add notes. All changes will be seen only by you. Learn more »
launch autoscroll
font size
0
reset
how to read this tab
guitar tuner
edit
Autoscroll
slow
fast
+/-
esc
set tempo
stop
Artist: You Me At Six
Song: The Consequence
Album: Hold Me Down
Tabbed by: gustavoaraujo999@hotmail.com

== GUITAR ONE (LEAD) ==

[0:29]
e|---------------------------------------------------------------|
B|---------------------------------------------------------------|
G|-9-1414141212-7777/999----9-1414141212-5555/777----------------|
D|-x-x-x-x-x-x--xxxx-xxx----x-x-x-x-x-x--xxxx-xxx----------------|
A|-7-1212121010-5555/777----7-1212121010-3333/555----------------|
D|---------------------------------------------------------------|

e|---------------------------------------------------------------|
B|---------------------------------------------------------------|
G|-9-1414141212-7777/999------12121212-9999-14141414-11111111----|
D|-x-x-x-x-x-x--xxxx-xxx------x-x-x-x--xxxx-x-x-x-x--x-x-x-x-----|
A|-7-1212121010-5555/777------10101010-7777-12121212-9-9-9-9-----|
D|---------------------------------------------------------------|

[1:00]
e|---------------------------------------------------------------|
B|---------------------------------------------------------------|
G|-9-9-9-9--1414141414121212------9-9-9-9--55555777--------------|
D|-x-x-x-x--x-x-x-x-x-x-x-x-------x-x-x-x--xxxxxxxx--------------|
A|-7-7-7-7--1212121212101010------7-7-7-7--33333555--------------|
D|---------------------------------------------------------------|

e|---------------------------------------------------------------|
B|---------------------------------------------------------------|
G|-9-9-9-9--1414141414121212------1212121212121212-141414-111111-|
D|-x-x-x-x--x-x-x-x-x-x-x-x-------x-x-x-x-x-x-x-x--x-x-x--x-x-x--|
A|-7-7-7-7--1212121212101010------1010101010101010-121212-9-9-9--|
D|---------------------------------------------------------------|

[1:12]
e|-----------------------------|
B|-----------------------------|
G|-12121212-14141414-11111111--|
D|-x-x-x-x--x-x-x-x--x-x-x-x---|
A|-10101010-12121212-9-9-9-9---|
D|-----------------------------|

[1:15]
e|--0-0--3-0--5p0-0-10p0-0-5p0-0-777--|-0~~----555----|
B|------------------------------------|---------------|
G|------------------------------------|---------------|
D|-----------------[x4]---------------|---------------|
A|------------------------------------|---------------|
D|------------------------------------|---------------|

[1:30]
e|---------------------------------------------------------------|
B|---------------------------------------------------------------|
G|-9-9-9-9--1414141414121212------9-9-9-9--55555777--------------|
D|-x-x-x-x--x-x-x-x-x-x-x-x-------x-x-x-x--xxxxxxxx--------------|
A|-7-7-7-7--1212121212101010------7-7-7-7--33333555--------------|
D|---------------------------------------------------------------|

e|---------------------------------------------------------------|
B|---------------------------------------------------------------|
G|-9-9-9-9--1414141414121212------9-9-9-9--55555777--------------|
D|-x-x-x-x--x-x-x-x-x-x-x-x-------x-x-x-x--xxxxxxxx--------------|
A|-7-7-7-7--1212121212101010------7-7-7-7--33333555--------------|
D|---------------------------------------------------------------|

e|---------------------------------------------------------------|
B|---------------------------------------------------------------|
G|-9-9-9-9------------------------9-9-9-9------------------------|
D|-x-x-x-x------------------------x-x-x-x------------------------|
A|-7-7-7-7------------------------7-7-7-7------7-7-7-7-7-7-7-7---|
D|---------------------------------------------------------------|

[1:50]
e|--0-0--3-0--5p0-0-10p0-0-5p0-0-777--|
B|------------------------------------|
G|------------------------------------|
D|----------------[x4]----------------|
A|------------------------------------|
D|------------------------------------|
 
[2:01]
e|-10-0-5-0-7-0-0-2-0-3-0--0-333---|
B|---------------------------------|
G|---------------------------------|
D|-------------[x4]----------------|
A|---------------------------------|
D|---------------------------------|

[2:18]
e|-10-----7~-----------------------10-----7~---------------------|
B|----8------10-10-10-12-12-12--------8-------8-8-8-10-10-10-----|
G|------9-------------------------------9------------------------|
D|---------------------------------------------------------------|
A|---------------------------------------------------------------|
D|---------------------------------------------------------------|

[2:35]
e|-0~---2~---10p0-5p0-7p0-0-0-10p0-5p0-0-7-7---------------------|
B|---------------------------------------------------------------|
G|---------------------------------------------------------------|
D|---------------------------------------------------------------|
A|---------------------------------------------------------------|
D|---------------------------------------------------------------|

[2:43]
e|--0-0--3-0--5p0-0-10p0-0-5p0-0-777--|
B|------------------------------------|
G|------------------------------------|
D|---------------[x4]-----------------|
A|------------------------------------|
D|------------------------------------|

[2:55]
e|-10-0-5-0-7-0-0-2-0-3-0--0-333---|--0~~--|
B|---------------------------------|-------|
G|---------------------------------|-------|
D|---------------[x4]--------------|-------|
A|---------------------------------|-------|
D|---------------------------------|-------|
 
[3:32]
e|---------0---------------0-------------0-------------0---------|
B|---------8---------------8-------------8-------------8---------|
G|-9-9-9-9-7h9-9-9-9-9-9-9-7h9-9-9-9-9-9-7h9-9-9-9-9-9-7h9-9-9-9-|
D|---------------------------------------------------------------|
A|---------------------------------------------------------------|
D|---------------------------------------------------------------|
PM . . . .   . . . . . . .   . . . . . .   . . . . . .   . . . .

e|-------------------------------------------------------------00000000--|
B|-------------8-8-8-7-7-7-------------------8-8-8-7-7-7-------88888888--|
G|-9-9-9-9-9-9-------------7-7-7h9-9-9-9-9-9-------------7-7-7h99999999--|
D|-----------------------------------------------------------------------|
A|-----------------------------------------------------------------------|
D|-----------------------------------------------------------------------|
PM . . . . . . . . . . . . . . . . . . . . . . . . . . . . . .

[3:55]
Listen closely, there are some little variations here
e|--0-0--3-0--5p0-0-10p0-0-5p0-0-777--|-0~~-------|
B|------------------------------------|-----------|
G|------------------------------------|-----------|
D|------------------[x9]--------------|-----------|
A|------------------------------------|-----------|
D|------------------------------------|-----------|




== GUITAR TWO (RHYTHM) ==

[0:17]
e|---------------------------------------------------------------|
B|---------------------------------------------------------------|
G|---------------------------------------------------------------|
D|-2--777-25-12121212121212------2--777-25--10101010777----------|
A|-2--777-25-12121212121212------2--777-25--10101010777----------|
D|-2--777-25-12121212121212------2--777-25--10101010777----------|

e|---------------------------------------------------------------|
B|---------------------------------------------------------------|
G|-------------------------------999999-555555-------------------|
D|-2--777-25-12121212121212------999999-555555----------xx-xx----|
A|-2--777-25-12121212121212-----------------------------xx-xx----|
D|-2--777-25-12121212121212-----------------------------xx-xx----|

[0:28]
e|---------------------------------------------------------------|
B|---------------------------------------------------------------|
G|---------------------------------------------------------------|
D|-2--777-25-12121212121212------2--777-25--10101010777----------|
A|-2--777-25-12121212121212------2--777-25--10101010777----------|
D|-2--777-25-12121212121212------2--777-25--10101010777----------|

e|---------------------------------------------------------------|
B|---------------------------------------------------------------|
G|---------------------------------------------------------------|
D|-2--777-25-12121212121212-----101010101010-777777777-----------|
A|-2--777-25-12121212121212-----101010101010-777777777-----------|
D|-2--777-25-12121212121212-----101010101010-777777777-----------|

[0:42]
e|---------------------------------------------------------------|
B|---------------------------------------------------------------|
G|---------------------------------------------------------------|
D|-2--777-55-12121212-0-0-------2-777-55-10101010777-------------|
A|-2--777-55-12121212-0-0-------2-777-55-10101010777-------------|
D|-2--777-55-12121212-0-0-------2-777-55-10101010777-------------|
PM    ... .  . . . .              ... .  . . . . ...

[0:47]
e|---------------------------------------------------------------|
B|---------------------------------------------------------------|
G|---------------------------------------------------------------|
D|-2--777-55-12121212121212------2--777-55--10101010777----------|
A|-2--777-55-12121212121212------2--777-55--10101010777----------|
D|-2--777-55-12121212121212------2--777-55--10101010777----------|
PM    ... .  . . . . . . .          ... .   . . . . ...

e|---------------------------------------------------------------|
B|---------------------------------------------------------------|
G|---------------------------------------------------------------|
D|-2--777-55-12121212121212------2--777-55--10101010777----------|
A|-2--777-55-12121212121212------2--777-55--10101010777----------|
D|-2--777-55-12121212121212------2--777-55--10101010777----------|
PM    ... .  . . . . . . .          ... .   . . . . ...

[1:00]
e|---------------------------------------------------------------|
B|---------------------------------------------------------------|
G|---------------------------------------------------------------|
D|-2--777-25-12121212121212------2--777-25--10101010777----------|
A|-2--777-25-12121212121212------2--777-25--10101010777----------|
D|-2--777-25-12121212121212------2--777-25--10101010777----------|

e|---------------------------------------------------------------|
B|---------------------------------------------------------------|
G|---------------------------------------------------------------|
D|-2--777-25-12121212121212------1010101010101010-77777777-------|
A|-2--777-25-12121212121212------1010101010101010-77777777-------|
D|-2--777-25-12121212121212------1010101010101010-77777777-------|

[1:12]
e|-----------------------------|
B|-----------------------------|
G|-----------------------------|
D|-1010101010101010-77777777---|
A|-1010101010101010-77777777---|
D|-1010101010101010-77777777---|
PM . . . . . . . .  ........

[1:15]
e|-------------------------------------------------------------------------------|
B|-------------------------------------------------------------------------------|
G|-------------------------------------------------------------------------------|
D|-22222222-55555555-0000000000000000---22222222-55555555-00000000000007772~-777-|
A|-22222222-55555555-0000000000000000---22222222-55555555-00000000000007772~-777-|
D|-22222222-55555555-0000000000000000---22222222-55555555-00000000000007772~-777-|
 
[1:29]
e|---------------------------------------------------------------|
B|---------------------------------------------------------------|
G|---------------------------------------------------------------|
D|-2--777-25-12121212121212------2--777-25--10101010777----------|
A|-2--777-25-12121212121212------2--777-25--10101010777----------|
D|-2--777-25-12121212121212------2--777-25--10101010777----------|

e|---------------------------------------------------------------|
B|---------------------------------------------------------------|
G|---------------------------------------------------------------|
D|-2--777-25-12121212121212------2--777-25--10101010777----------|
A|-2--777-25-12121212121212------2--777-25--10101010777----------|
D|-2--777-25-12121212121212------2--777-25--10101010777----------|

e|---------------------------------------------------------------|
B|---------------------------------------------------------------|
G|----222---------------------------222--------------------------|
D|-2--222-22---------------------2--222-22--2-2-2-2-2-2-2-2------|
A|-2--000-22---------------------2--000-22-----------------------|
D|-2------22---------------------2------22-----------------------|

[1:48]
e|-------------------------------------------------------------------------|
B|-------------------------------------------------------------------------|
G|-------------------------------------------------------------------------|
D|-22222222-55555555-0000000000000000---22222222-55555555-0000000000000000-|
A|-22222222-55555555-0000000000000000---22222222-55555555-0000000000000000-|
D|-22222222-55555555-0000000000000000---22222222-55555555-0000000000000000-|

[2:01]
e|---------------------------------------------------------------|
B|---------------------------------------------------------------|
G|-99999999------------------------------------------------------|
D|-99999999-1010101010101010-12121212121212121212121212121212----|
A|-77777777-1010101010101010-12121212121212121212121212121212----|
D|----------1010101010101010-12121212121212121212121212121212----|

e|---------------------------------------------------------------|
B|---------------------------------------------------------------|
G|---------------------------------------------------------------|
D|-22222222-1010101010101010-12121212121212121212121212121212----|
A|-22222222-1010101010101010-12121212121212121212121212121212----|
D|-22222222-1010101010101010-12121212121212121212121212121212----|

[2:12]
e|------------------------------------------|
B|------------------------------------------|
G|------------------------------------------|
D|-------10---------12--------14-----14~----|
A|-----10---------12--------14------14~-----|
D|-9-10------10-12-----12-14-------14~------|

[2:37]
e|---------------------------------------|
B|---------------------------------------|
G|---------------------------------------|
D|-2~-------4~--------000000000000000----|
A|-2~-------4~--------000000000000000----|
D|-2~-------4~--------000000000000000----|

[2:42]
e|-------------------------------------------------------------------------|
B|-------------------------------------------------------------------------|
G|-------------------------------------------------------------------------|
D|-22222222-55555555-0000000000000000---22222222-55555555-0000000000000000-|
A|-22222222-55555555-0000000000000000---22222222-55555555-0000000000000000-|
D|-22222222-55555555-0000000000000000---22222222-55555555-0000000000000000-|

[2:55]
e|---------------------------------------------------------------|
B|---------------------------------------------------------------|
G|-99999999------------------------------------------------------|
D|-99999999-1010101010101010-12121212121212121212121212121212----|
A|-77777777-1010101010101010-12121212121212121212121212121212----|
D|----------1010101010101010-12121212121212121212121212121212----|

e|---------------------------------------------------------------|
B|---------------------------------------------------------------|
G|---------------------------------------------------------------|
D|-22222222-1010101010101010-12121212121212121212121212121212-2~-|
A|-22222222-1010101010101010-12121212121212121212121212121212-2~-|
D|-22222222-1010101010101010-12121212121212121212121212121212-2~-|

[3:20]
e|-----------------------------------------------------------------|
B|-----------------------------------------------------------------|
G|-----------------------------------------------------------------|
D|-2~-------5~-------12~--------------2~-------5~-------12~----12~-|
A|-2~-------5~-------12~--------------2~-------5~-------12~----12~-|
D|-2~-------5~-------12~--------------2~-------5~-------12~----12~-|

[3:43]
e|---------------------------------------------------------------|
B|---------------------------------------------------------------|
G|---------------------------------------------------------------|
D|-22222222-55555555-12121212121212121212121212121212---2--------|
A|-22222222-55555555-12121212121212121212121212121212---2--------|
D|-22222222-55555555-12121212121212121212121212121212---2--------|
PM ........ ........ ................ . . . .

[3:57]
e|------------------------------------|
B|-------------------3333333333333333-|
G|-------------------2222222222222222-|
D|-22222222-55555555-0000000000000000-|
A|-22222222-55555555-0000000000000000-|
D|-22222222-55555555-0000000000000000-|

e|------------------------------------|
B|-------------------3333333333333333-|
G|-------------------2222222222222222-|
D|-22222222-55555555-0000000000000000-|
A|-22222222-55555555-0000000000000000-|
D|-22222222-55555555-0000000000000000-|

e|------------------------------------|
B|-------------------3333333333333333-|
G|-------------------2222222222222222-|
D|-22222222-55555555-0000000000000000-|
A|-22222222-55555555-0000000000000000-|
D|-22222222-55555555-0000000000000000-|

e|---------------------------------------|
B|-------------------3333333333333333----|
G|-------------------2222222222222222----|
D|-22222222-55555555-0000000000000000--2-|
A|-22222222-55555555-0000000000000000--2-|
D|-22222222-55555555-0000000000000000--2-|

            
            
Suggest correction
Creating personal tab
Creating personal tab
You can edit any tab online and save it as your Personal.

You can edit, replace or remove any tab part or add personal notes – all changes will be seen only by you.

Personal tabs can be accessed anytime from any device, even offline.
Learn more »
Give kudos to tab author, rate the tab!
1 2 3 4 5
comments
print report bad tab
guest
You may want to rate the tab now too:
select rating
Wanna post a correction for this tab? Suggest correction