Oops, an error
Loading. Please wait.

The Swarm tab

version 1
version 1

Whole song

9,449 views 1 this week
2 commentsread comments
1 2 3 4 5
x 4
add to favorites
×
Save as Personal and add changes to this tab that will be seen only by you. Learn more ›
×
You can save this tab as Personal to edit and correct it or add notes. All changes will be seen only by you. Learn more »
launch autoscroll
font size
0
reset
how to read this tab
guitar tuner
edit
Autoscroll
slow
fast
+/-
esc
set tempo
stop
-------------------------------------------------------------------------------
                The Swarm – You Me At Six
-------------------------------------------------------------------------------
Tabbed by: Joe Mc
Email:

Tuning: Drop D

Intro & Verses

e|---------------------------------------------------------------------------------|
B|------6----------------8----------10---------------------------------------------|
G|------7----------------9----------10---------------------------------------------|
D|------x-----(x16)-----x-(x8)----x---(x8)-----------------------------------------|
A|------5----------------7----------8----------------------------------------------|
E|---------------------------------------------------------------------------------|

Chorus 1 & 2
e|---------------------------------------------|
B|---------------------------------------------|
G|----7---------3------------------------------|
D|----7-(x16)-3-(16)--3-----------0-----5------|
A|----5---------1--------3-(x24)---0-----5-----|
E|------------------------3-----------0-----5--|

e|-------------------------------------------------------------------------------|
B|-------------------------------------------------------------------------------|
G|----7---------3----------------------------------------------------------------|
D|----7-(x16)-3-(16)--3-----------0-----5-------3---5—0~-------------------------|
A|----5---------1--------3-(x24)---0-----5-------3---5--0---~--------------------|
E|------------------------3-----------0-----5-------3---5--0-~-------------------|


breakdown
e|-----------------------------------------------------------------------------|
B|-----------------------------------------------------------------------------|
G|-----------------------------------------------------------------------------|
D|-----------------------------------------------------------------------------|
A|-----------------------------------------------------------------------------| X?
E|------333-555-00000000-------------------------------------------------------|

Heavy Bridge
e|-----------------------------------------------------------------------------|
B|-----------------------------------------------------------------------------|
G|-----------------------------------------------------------------------------|
D|-----333-555-00000000--------------------------------------------------------| X?
A|-----333-555-00000000--------------------------------------------------------|
E|-----333-555-00000000--------------------------------------------------------|

Last Chorus
e|---------------------------------------------|
B|---------------------------------------------|
G|----7---------3------------------------------|
D|----7-(x16)-3-(16)--3-----------0-----5------|
A|----5---------1--------3-(x24)---0-----5-----|
E|------------------------3-----------0-----5--|





e|-------------------------------------------------------------------------------|
B|-------------------------------------------------------------------------------|
G|----7---------3----------------------------------------------------------------|
D|----7-(x16)-3-(16)--3-----------0-----5-------3---5----------------------------|
A|----5---------1--------3-(x16)---0-----5-------3---5---------------------------|
E|------------------------3-----------0-----5-------3---5------------------------|

e|-------------------------------------------------------------------------------|
B|-------------------------------------------------------------------------------|
G|----7---------3----------------------------------------------------------------|X2
D|----7-(x16)-3-(16)--3----------------------------------------------------------|
A|----5---------1--------3-(x32)-------------------------------------------------|
E|------------------------3------------------------------------------------------|
Outro
e|-----------------------------------------------------------------------------------|
B|-----------------------------------------------------------------------------------|
G|-----------------------------------------------------------------------------------|
D|-------3--5--0----3----5-----0-----------------------------------------------------|
A|-------3--5--0----3---5---0--------------------------------------------------------|
E|-------3--5--0-----3---5---0-------------------------------------------------------|


************************************

| /   slide up
| \   slide down
| h   hammer-on
| p   pull-off
| ~   vibrato
| +   harmonic
| x   Mute note
| b   Bend
| pb  Pre-bend
| br  Bend release
| pbr Pre-bend release
| brb Bend release bend

************************************

            
            
Suggest correction
Creating personal tab
Creating personal tab
You can edit any tab online and save it as your Personal.

You can edit, replace or remove any tab part or add personal notes – all changes will be seen only by you.

Personal tabs can be accessed anytime from any device, even offline.
Learn more »
comments
print report bad tab
2 comments total.
0 reply
calluml3805 21 Mar 28, 2012 12:00 PM

Nice tab! :)
I've been looking for this since the song came out :D

0 reply
Vortex_uk 173 Apr 06, 2012 06:25 AM

Intro sounds a bit off.

You should probably keep the 5th on the A and the 7th on the G, then go 6-8-10 on the B.

|----------|
|-6--8--10-|
|-7--7--7--|
|-x--x--x--|
|-5--5--5--|
|----------|

guest
You may want to rate the tab now too:
select rating
Wanna post a correction for this tab? Suggest correction