Oops, an error
Loading. Please wait.

Youve Made Your Bed bass

version 2
version 2

Whole song

Interactive

680 views 1 this week
2 commentsread comments
1 2 3 4 5
3 more votes to show rating
add to favorites
×
Save as Personal and add changes to this tab that will be seen only by you. Learn more ›
×
You can save this tab as Personal to edit and correct it or add notes. All changes will be seen only by you. Learn more »
launch autoscroll
font size
0
reset
guitar tuner
edit
Autoscroll
slow
fast
+/-
esc
set tempo
stop
Difficulty
intermediate
-------------------------------------------------------------------------------
			     You've Made Your Bed - You Me At Six
-------------------------------------------------------------------------------

Tabbed By : Chris Jacobs
e-mail: chrisjacobsmailbox@yahoo.co.uk

Tuning:

Intro/Verse 1 (x4)
G|----------------------------------------------------------------------|
D|----------------------------------------------------------------------|
A|-9999999999999999-7777777777777777-5555555555555555-7777777777777777--|
E|----------------------------------------------------------------------|

Pre-Chorus (x2)
G|----------------------------------------------------------------------|
D|----------------------------------------------------------------------|
A|-9^---------------7^---------------0^---------------7^----------------|
E|----------------------------------------------------------------------|

Chorus 
G|----------------------------------------------------------------------|
D|----------------------------------------------------------------------|
A|-9999999999999999-5555555555555555------------------7777777777777777--|
E|-----------------------------------2222222222222222-------------------|

G|----------------------------------------------------------------------|
D|----------------------------------------------------------------------|
A|-9999999999999999-00h55555555555555------------------7777777777777777-|
E|------------------------------------2222222222222222------------------|

Verse 2 (x3)
G|--------------------------------------|
D|--------------------------------------|
A|--------------------------------------|
E|-55-5555--22-2222--00-0000--22-22-222-|

Pre-Chorus (x2)
G|----------------------------------------------------------------------|
D|----------------------------------------------------------------------|
A|-9^---------------7^---------------0^---------------7^----------------|
E|----------------------------------------------------------------------|

Chorus 
G|----------------------------------------------------------------------|
D|----------------------------------------------------------------------|
A|-9999999999999999-5555555555555555------------------7777777777777777--|
E|-----------------------------------2222222222222222-------------------|

G|----------------------------------------------------------------------|
D|----------------------------------------------------------------------|
A|-9999999999999999-00h55555555555555------------------7777777777777777-|
E|------------------------------------2222222222222222------------------|

Bridge (x4)
G|-----------------------------|
D|-----------------------------|
A|-2222--2222-----222--2222\12-|
E|------------00^--------------|

Bridge Cont.(x2)
G|---------------------------------------|
D|---------------------------------------|
A|-2222\4444\777777777--2222\4444\777777-|
E|---------------------------------------|

Chorus 
G|----------------------------------------------------------------------|
D|----------------------------------------------------------------------|
A|-9999999999999999-5555555555555555------------------7777777777777777--|
E|-----------------------------------2222222222222222-------------------|

G|----------------------------------------------------------------------|
D|----------------------------------------------------------------------|
A|-9999999999999999-00h55555555555555------------------7777777777777777-|
E|------------------------------------2222222222222222------------------|

Outro (x2)
G|-------------------------------------------------------|
D|-------------------------------------------------------|
A|--9-999-999-7--777-777--5-555-555--7-777-777-----------|
E|-------------------------------------------------------|

End
G|-----------------------------------------------------|
D|-----------------------------------------------------|
A|--9^----------7^----------5^----------7^-------------|
E|-----------------------------------------------------|

| /  slide up
| \  slide down
| h  hammer-on
| p  pull-off
| ~  vibrato
| +  harmonic
| x  Mute note
===============================================================================
Suggest correction
Creating personal tab
Creating personal tab
You can edit any tab online and save it as your Personal.

You can edit, replace or remove any tab part or add personal notes – all changes will be seen only by you.

Personal tabs can be accessed anytime from any device, even offline.
Learn more »
Give kudos to tab author, rate the tab!
1 2 3 4 5
comments
print report bad tab
2 comments total.
0 reply
ImTobiasHehe 31 Nov 29, 2009 09:20 AM

on verse 2 it does 2 notes not four, and the pre chorus is
9~ 7~ 5~ 7~ :D

but apart from that, thank god theres a correct this song!
i learnt the other one and it was horribly wrong so i had to tab it my self, and it sounded exactly the same.

0 reply
ImTobiasHehe 31 Nov 29, 2009 09:20 AM

*Correct tab for this song

guest
Wanna post a correction for this tab? Suggest correction