Oops, an error
Loading. Please wait.

Roofio Shoots Roofio Scores tab

172 views 1 this week
no commentswrite comment
1 2 3 4 5
3 more votes to show rating
add to favorites
×
Save as Personal and add changes to this tab that will be seen only by you. Learn more ›
×
You can save this tab as Personal to edit and correct it or add notes. All changes will be seen only by you. Learn more »
launch autoscroll
font size
0
reset
how to read this tab
guitar tuner
edit
Autoscroll
slow
fast
+/-
esc
set tempo
stop
D#|---------------------------------------------------------------------------------------------------|
A#|---------------------------------------------------------------------------------------------------|
F#|---------------------------------------------------------------------------------------------------|
C#|-----------------------------------------------------------------------------x--x--x--x--x--x--x---|
G#|--------------2-----------------------2-----2--3--2-----------2--------------x--x--x--x--x--x--x---|
C#|--0--0--2--3-----3--2--0-----0--2--3-----3-----------0--2--3-----3--2--0-----x--x--x--x--x--x--x---|
PM   .  .  .  .  .  .  .  .     .  .  .  .  .  .  .  .  .  .  .  .  .  .  .

D#|---------------------------------------------------|
A#|---------------------------------------------------|
F#|---------------------------------------------------|
C#|--0~-----------------------------------------------|
G#|--0~-----------------------------------------------|
C#|--0~----------------------------------------12\----|


D#|---------------------------------------------------------------------------------------------------|
A#|---------------------------------------------------------------------------------------------------|
F#|---------------------------------------------------------------------------------------------------|
C#|---------------------------------------------------------------------------------------------------|
G#|--------------2-----------------------2-----2--3--2-----------2-----------------------2-----2--3---|
C#|--0--0--2--3-----3--2--0-----0--2--3-----3-----------0--2--3-----3--2--0-----0--2--3-----3---------|


D#|---------------------------------------------------------------------------------------------------|
A#|---------------------------------------------------------------------------------------------------|
F#|---------------------------------------------------------------------------------------------------|
C#|---------------------------------------------------------------------------------------------------|
G#|--2-----------2-----------------------2-----2--3--2-----------2-----------------------2-----2/-----|
C#|-----0--2--3-----3--2--0-----0--2--3-----3-----------0--2--3-----3--2--0-----0--2--3-----3---------|


D#|---------------------------------------------------------------------------------------------------|
A#|---------------------------------------------------------------------------------------------------|
F#|--------------------14----------------------13----------------------11----------------------10-----|
C#|--x--x--12-12-12----12----x--x--12-12-12----12----x--x--12-12-12----10----x--x--12-12-12----12-----|
G#|--x--x--12-12-12----------x--x--12-12-12----------x--x--12-12-12----------x--x--12-12-12-----------|
C#|--x--x--12-12-12----------x--x--12-12-12----------x--x--12-12-12----------x--x--12-12-12-----------|


D#|---------------------------------------------------------------------------------------------------|
A#|---------------------------------------------------------------------------------------------------|
F#|---------------------------------------------------------------------------------------------------|
C#|---------------------------------------------------------------------------------------------------|
G#|--------------2-----------------------2-----2--3--2-----------2-----------------------2-----2/-----|
C#|--0--0--2--3-----3--2--0-----0--2--3-----3-----------0--2--3-----3--2--0-----0--2--3-----3---------|


D#|---------------------------------------------------------------------------------------------------|
A#|-----------------------------------------------------------------------------------------------8---|
F#|--------14----------------------14----------------------14----------------------14-----------------|
C#|-----12-------12----12-------12-------12----12-------12-------12----12-------12-------12----12-----|
G#|--12-------12----12-------12-------12----12-------12-------12----12-------12-------12----12--------|
C#|---------------------------------------------------------------------------------------------------|
PM   .  .  .  .  .  .  .     .  .  .  .  .  .  .     .  .  .  .  .  .  .     .  .  .  .  .  .  .

D#|---------------------------------------------------|
A#|--8~-----------------------------------------------|
F#|---------------------------------------------------|
C#|---------------------------------------------------|
G#|---------------------------------------------------|
C#|---------------------------------------------------|


D#|---------------------------------------------------------------------------------------------------|
A#|--8--8--8--8--8--8--8--8--8--8--8--8--8--8--8--8--7--7--7--7--7--7--7--7--7--7--7--7--7--7--7--7---|
F#|---------------------------------------------------------------------------------------------------|
C#|---------------------------------------------------------------------------------------------------|
G#|---------------------------------------------------------------------------------------------------|
C#|---------------------------------------------------------------------------------------------------|


D#|---------------------------------------------------------------------------------------------------|
A#|---------------------------------------------------------------------------------------------------|
F#|--7--7--7--7--7--7--7--7--7--7--7--7--5--5--5--5--7-----------------7------------------------------|
C#|--------------------------------------------------7--6-----6-----6--7--6-----5-----5--5--5--5------|
G#|--------------------------------------------------5--6-----6-----6--5--6-----5-----5--5--5--5------|
C#|-----------------------------------------------------6-----6-----6-----6-----5-----5--5--5--5------|


D#|---------------------------------------------------------------------------------------------------|
A#|--8--8--8--8--8--8--8--8--8--8--8--8--8--8--8--8--7--7--7--7--7--7--7--7-----7--7--8--7--7--7--7---|
F#|---------------------------------------------------------------------------------------------------|
C#|---------------------------------------------------------------------------------------------------|
G#|---------------------------------------------------------------------------------------------------|
C#|---------------------------------------------------------------------------------------------------|


D#|---------------------------------------------------------------------------------------------------|
A#|---------------------------------------------------------------------------------------------------|
F#|--7--7--7--7--7--7--7--7--7--7--7--7--5--5--5--5--7-----------------7------------------------------|
C#|--------------------------------------------------7--6-----6-----6--7--6-----5-----5--5--5--5------|
G#|--------------------------------------------------5--6-----6-----6--5--6-----5-----5--5--5--5------|
C#|-----------------------------------------------------6-----6-----6-----6-----5-----5--5--5--5------|


D#|---------------------------------------------------|
A#|---------------------------------------------------|
F#|---------------------------------------------------|
C#|---------------------------------------------------|
G#|---------------------------------------------------|
C#|--------------------------------------12\----------|


D#|---------------------------------------------------------------------------------------------------|
A#|---------------------------------------------------------------------------------------------------|
F#|---------------------------------------------------------------------------------------------------|
C#|---------------------------------------------------------------------------------------------------|
G#|--------------2-----------------------2-----2--3--2-----------2-----------------------2-----2--3---|
C#|--0--0--2--3-----3--2--0-----0--2--3-----3-----------0--2--3-----3--2--0-----0--2--3-----3---------|


D#|---------------------------------------------------------------------------------------------------|
A#|---------------------------------------------------------------------------------------------------|
F#|---------------------------------------------------------------------------------------------------|
C#|---------------------------------------------------------------------------------------------------|
G#|--2-----------2-----------------------2-----2--3--2-----------2-----------------------2-----2/-----|
C#|-----0--2--3-----3--2--0-----0--2--3-----3-----------0--2--3-----3--2--0-----0--2--3-----3---------|


D#|---------------------------------------------------------------------------------------------------|
A#|---------------------------------------------------------------------------------------------------|
F#|--------------------14----------------------13----------------------11----------------------10-----|
C#|--x--x--12-12-12----12----x--x--12-12-12----12----x--x--12-12-12----10----x--x--12-12-12----12-----|
G#|--x--x--12-12-12----------x--x--12-12-12----------x--x--12-12-12----------x--x--12-12-12-----------|
C#|--x--x--12-12-12----------x--x--12-12-12----------x--x--12-12-12----------x--x--12-12-12-----------|


D#|---------------------------------------------------------------------------------------------------|
A#|---------------------------------------------------------------------------------------------------|
F#|---------------------------------------------------------------------------------------------------|
C#|---------------------------------------------------------------------------------------------------|
G#|--------------2-----------------------2-----2--3--2-----------2-----------------------2-----2/-----|
C#|--0--0--2--3-----3--2--0-----0--2--3-----3-----------0--2--3-----3--2--0-----0--2--3-----3---------|


D#|---------------------------------------------------------------------------------------------------|
A#|---------------------------------------------------------------------------------------------------|
F#|---------------------------------------------------------------------------------------------------|
C#|--12-0--12-0--12-0--12-0--12-0--12-0--12-0--12-0--11-0--11-0--11-0--11-0--11-0--11-0--11-0--11-0---|
G#|---------------------------------------------------------------------------------------------------|
C#|---------------------------------------------------------------------------------------------------|


D#|---------------------------------------------------------------------------------------------------|
A#|--8--8--8--8--8--8--8--8--8--8--8--8--8--8--8--8--10-10-10-10-10-10-10-10-10-10-10-8-----7---------|
F#|---------------------------------------------------------------------------------------------------|
C#|---------------------------------------------------------------------------------------------------|
G#|---------------------------------------------------------------------------------------------------|
C#|---------------------------------------------------------------------------------------------------|


D#|---------------------------------------------------------------------------------------------------|
A#|---------------------------------------------------------------------------------------------------|
F#|--7--7--7--7--7--7--7--7--7--7--7--7--5--5--5--5--7-----------------7------------------------------|
C#|--------------------------------------------------7--6-----6-----6--7--6-----5-----5--5--5--5------|
G#|--------------------------------------------------5--6-----6-----6--5--6-----5-----5--5--5--5------|
C#|-----------------------------------------------------6-----6-----6-----6-----5-----5--5--5--5------|


D#|---------------------------------------------------------------------------------------------------|
A#|--8--8--8--8--8--8--8--8--8--8--8--8--8--8--8--8--10-10-10-8--7-----7--8--7----------/15-----------|
F#|--------------------------------------------------------------------------------7------------------|
C#|---------------------------------------------------------------------------------------------------|
G#|---------------------------------------------------------------------------------------------------|
C#|---------------------------------------------------------------------------------------------------|


D#|---------------------------------------------------------------------------------------------------|
A#|--10-10-10-8-----7---------------------------------------------------------------------------------|
F#|-----------------------5-----5--5--5--5--5--5--5--7-----------------7------------------------------|
C#|--------------------------------------------------7--6-----6-----6--7--6-----5-----5--5--5--5------|
G#|--------------------------------------------------5--6-----6-----6--5--6-----5-----5--5--5--5------|
C#|-----------------------------------------------------6-----6-----6-----6-----5-----5--5--5--5------|


D#|---------------------------------------------------------------------------------------------------|
A#|---------------------------------------------------------------------------------------------------|
F#|---------------------------------------------------------------------------------------------------|
C#|-----------------------------------------------------------------------------0-----0-----0-----0---|
G#|--------------2-----------------------------------------------2--------------0-----0-----0-----0---|
C#|--0--0--2--3-----3--2--0--------------------------0--0--2--3-----3--2--0-----0-----0-----0-----0---|


D#|---------------------------------------------------------------------------------------------------|
A#|---------------------------------------------------------------------------------------------------|
F#|---------------------------------------------------------------------------------------------------|
C#|---------------------------------------------------------------------------------------------------|
G#|--------------2-----------------------------------------------2-----------------------2--3--2------|
C#|--0--0--2--3-----3--2--0--------0/----------12\---0--0--2--3-----3--2--0-----0--2--3---------------|


D#|---------------------------------------------------------------------------------------------------|   \
A#|---------------------------------------------------------------------------------------------------|    \
F#|---------------------------------------------------------------------------------------------------| GTR |
C#|--------------------------------------------------------------------------------------4---4---4----|  1  |
G#|--------------2-----------------------2-----2--3--2-----------2------------------------------------|     |
C#|--0--0--2--3-----3--2--0-----0--2--3-----3-----------0--2--3-----3--2--0-----0--2--3---------------|     |
                                                                                                            |
D#|---------------------------------------------------------------------------------------------------|     |
A#|---------------------------------------------------------------------------------------------------|     |
F#|---------------------------------------------------------------------------------------------------| GTR |
C#|---------------------------------------------------------------------------------------------------|  2  |
G#|--------------14----------------------14----14-15-14----------14----------------------14--14--14---|    /
C#|--0--0--14-15----15-14-0-----0--14-15----15----------0--14-15----15-14-0-----0--14-15--------------|   /


D#|---------------------------------------------------------------------------------------------------|   \
A#|---------------------------------------------------------------------------------------------------|    \
F#|---------------------------------------------------------------------------------------------------| GTR |
C#|--------------------------------------------------------------------------------------4---4---4----|  1  |
G#|--------------2-----------------------2-----2--3--2-----------2------------------------------------|     |
C#|--0--0--2--3-----3--2--0-----0--2--3-----3-----------0--2--3-----3--2--0-----0--2--3---------------|     |
                                                                                                            |
D#|---------------------------------------------------------------------------------------------------|     |
A#|---------------------------------------------------------------------------------------------------|     |
F#|---------------------------------------------------------------------------------------------------| GTR |
C#|---------------------------------------------------------------------------------------------------|  2  |
G#|--------------14----------------------14----14-15-14----------14----------------------14--14--14---|    /
C#|--0--0--14-15----15-14-0-----0--14-15----15----------0--14-15----15-14-0-----0--14-15--------------|   /


D#|---------------------------------------------------------------------------------------------------|   \
A#|---------------------------------------------------------------------------------------------------|    \
F#|---------------------------------------------------------------------------------------------------| GTR |
C#|---------------------------------------------------------------------------------------------------|  1  |
G#|--------------14----------------------14----14-15-14----------14----------------------14--14--14---|     |
C#|--0--0--14-15----15-14-0-----0--14-15----15----------0--14-15----15-14-0-----0--14-15--------------|     |
                                                                                                            |
D#|---------------------------------------------------------------------------------------------------|     |
A#|---------------------------------------------------------------------------------------------------|     |
F#|---------------------------------------------------------------------------------------------------| GTR |
C#|---------------------------------------------------------------------------------------------------|  2  |
G#|--------------17----------------------17----17-18-17----------17----------------------17--17--17---|    /
C#|--0--0--17-18----18-17-0-----0--17-18----18----------0--17-18----18-17-0-----0--17-18--------------|   /


D#|---------------------------------------------------------------------------------------------------|   \
A#|---------------------------------------------------------------------------------------------------|    \
F#|---------------------------------------------------------------------------------------------------| GTR |
C#|--------------------------------------------------------------------------------------4---4---4----|  1  |
G#|--------------2-----------------------2-----2--3--2-----------2------------------------------------|     |
C#|--0--0--2--3-----3--2--0-----0--2--3-----3-----------0--2--3-----3--2--0-----0--2--3---------------|     |
                                                                                                            |
D#|---------------------------------------------------------------------------------------------------|     |
A#|---------------------------------------------------------------------------------------------------|     |
F#|---------------------------------------------------------------------------------------------------| GTR |
C#|--------------16----------------------16----16-17-16----------16----------------------16--16--16---|  2  |
G#|--------16-17----17-16----------16-17----17-------------16-17----17-16----------16-17--------------|    /
C#|--0--0-----------------0-----0-----------------------0-----------------0-----0---------------------|   /


D#|---------------------------------------------------|   \
A#|---------------------------------------------------|    \
F#|---------------------------------------------------| GTR |
C#|--4---4b-------------------------------------------|  1  |
G#|---------------------------------------------------|     |
C#|---------------------------------------------------|     |
                                                            |
D#|---------------------------------------------------|     |
A#|---------------------------------------------------|     |
F#|---------------------------------------------------| GTR |
C#|--16--16b------------------------------------------|  2  |
G#|---------------------------------------------------|    /
C#|---------------------------------------------------|   /



************************************

| x  Dead note
| b  Bend
| /  Slide up
| \  Slide down
| ~  Vibrato

************************************

            
            
Suggest correction
Creating personal tab
Creating personal tab
You can edit any tab online and save it as your Personal.

You can edit, replace or remove any tab part or add personal notes – all changes will be seen only by you.

Personal tabs can be accessed anytime from any device, even offline.
Learn more »
Give kudos to tab author, rate the tab!
1 2 3 4 5
comments
print report bad tab
guest
You may want to rate the tab now too:
select rating
Wanna post a correction for this tab? Suggest correction