Oops, an error
Loading. Please wait.

New Summer tab

668 views 1 this week
4 commentsread comments
1 2 3 4 5
1 last vote to show rating
add to favorites
×
Save as Personal and add changes to this tab that will be seen only by you. Learn more ›
×
You can save this tab as Personal to edit and correct it or add notes. All changes will be seen only by you. Learn more »
launch autoscroll
font size
0
reset
how to read this tab
guitar tuner
edit
Autoscroll
slow
fast
+/-
esc
set tempo
stop
Author
Difficulty
-----------------------------------------------------------------------------
                        Young Galaxy - New Summer
-----------------------------------------------------------------------------
Tabbed by: Marcus Marchal (Warflojd)
E-mail: mackan_003_94@hotmail.com

Tuning: Standard
No capo

This is an acoustic version of the song New Summer by Young Galaxy that I made. Hope you enjoy it!

Intro:

e|--------------------------------------|
B|--9--9--9-----7--7--9--9--9-----9--7--|
G|-----------6--------------------------|
D|-----------------------------9--------|
A|--------------------------------------|
E|--------------------------------------|

This is the synth part, which plays during the chorus (Hey, it's a new summer). It is 
also played in the intro right after the tiny part above. The first verse begins right 
after this beautiful little melody.

e|------------------9-------------------------------------------------------|
B|----------10--12--------------9--10--9------------------------------------|
G|--11--11-------------9--9--9------------9----------9---------9--9--8------|
D|-------------------------------------------11--11-----11--9-----------9---|
A|--------------------------------------------------------------------------|
E|--------------------------------------------------------------------------|


e|--------------------------------------------------------------|
B|-----------------9--9-------------------------------9---------|
G|--------------9--------11--9--11--9--------------9-----11--9--|
D|----------11---------------------------------11---------------|
A|--12--12-----------------------------12--12-------------------|
E|--------------------------------------------------------------|


Verse 1:

E
Here it comes again, the beautiful warm weather
A
Right before the end of everything forever
C#m
The end of bars and clubs with lines around the block
B
The crowded dance floors winding up to feel the drop
E                                       A
So meet me by the river, let's go for a ride
A
With the windows down and the stereo loud


Chorus:

A                             E
Feels like a dream tonight, a little break in time
                  C#m   B
As we howl at the moon, moon
A                             E
Feels like a dream tonight, a little break in time
                  C#m   B
As we howl at the moon, moon


F#m  C#m        A      B
Hey, it's a new summer
          A     C#m             A        B
And we'll live it like it's our last one,
A     B
moon, moon


Verse 2:

E
It never would have been as good if built to last
A
We never would've stood a chance if it didn't move fast
C#m
The end will come for holidays and sweet sixteens
B
For friends and getting lost in your computer screen
E                                       A
So meet me by the river, let's go for a ride
A
With the windows down, and the stereo loud


Chorus :

A                             E
Feels like a dream tonight, a little break in time
                  C#m   B
As we howl at the moon, moon
A                             E
Feels like a dream tonight, a little break in time
                  C#m   B
As we howl at the moon, moon


F#m  C#m        A      B
Hey, it's a new summer
          A      C#m            A         B
And we'll live it like it's our last one,
A         B
moon, moon


A                             E
Feels like a dream tonight, a little break in time
                  C#m   B
As we howl at the moon, moon
A                             E
Feels like a dream tonight, a little break in time
                  C#m   B
As we howl at the moon, moon


F#m  C#m        A      B
Hey, it's a new summer
                  A    C#m   A     B
As we howl at the mooooooon, mooooooon


Outro:

A   E           C#m    B
Hey, it's a new summer
                  A    C#m   A     B
As we howl at the mooooooon, mooooooon


Hey, hey...

            
            
Suggest correction
Creating personal tab
Creating personal tab
You can edit any tab online and save it as your Personal.

You can edit, replace or remove any tab part or add personal notes – all changes will be seen only by you.

Personal tabs can be accessed anytime from any device, even offline.
Learn more »
Give kudos to tab author, rate the tab!
1 2 3 4 5
comments
print report bad tab
4 comments total. Showing first comments.
0 reply
KarmaInitiative 10 Sep 20, 2014 08:28 AM

Chorus chords are a bit off I think. I am playing this for all but the last iteration of the chorus (which has different chords):

A B
Feels like a dream tonight, a little break in time
A B
As we howl at the moon, moon
F#m G#m
Feels like a dream tonight, a little break in time
A B
As we howl at the moon, moon

0 reply
Warflojd 541 Sep 22, 2014 10:44 AM, edited at 02:45 pm

Although I don't think it sounds too bad playing the chorus as it is right now, you're absolutely right and your way of playing it does sound better. Thanks for the correction!

0 reply
KarmaInitiative 10 Sep 23, 2014 06:11 AM

I'm super glad somebody else liked this song enough to put up a tab. thanks! - really good job on the intro too.

guest
You may want to rate the tab now too:
select rating
Wanna post a correction for this tab? Suggest correction