Oops, an error
Loading. Please wait.

Bulletproof Tab

124 views 3 this week
no commentswrite comment
1 2 3 4 5
2 more votes to show rating
add to favorites
launch autoscroll
font size
0
reset
how to read this tab
guitar tuner
Autoscroll
slow
fast
+/-
esc
set tempo
stop
Help us to improve Ultimate-Guitar.com Take our survey!
×
Author
Difficulty
Tuning
intermediate
D A D G B E
Young Guns - Bulletproof
Album: Echoes

Drop D tuning

Enjoy ;) 
Tabbed by Jasper Vellekoop.

[Intro/Verse 1]
e |----------------------------------------------------------------------------------------|
B |-----------------------------------------------------------------6---6-6-6-6-6----------|
G |--10---10-10-10-10-10-----8---8-8-8-8-8------8---8-8-8-8-8-------7---7-7-7-7-7----------|
D |--10---10-10-10-10-10-----8---8-8-8-8-8------8---8-8-8-8-8-------7---7-7-7-7-7----------|
A |---8----8--8--8--8--8-----6---6-6-6-6-6------6---6-6-6-6-6-------5---5-5-5-5-5----------| 6x
D |----------------------------------------------------------------------------------------|

[Chorus]
e |-------------------------------------------------------------------------|
B |-------------------------------------------------------------------------|
G |-------------------------------------------------------------------------|
D |--3---3-3-6-6-6-6-1---1-1-5-5-5-5-1---1-1-5-5-5-5------------------------|
A |--3---3-3---------1---1-1---------1---1-1----------------------6---------|
D |--3---3-3---------1---1-1---------1---1-1---------6/8--8-8-6-8---8-------|

e |-------------------------------------------------------------------------|
B |-------------------------------------------------------------------------|
G |-------------------------------------------------------------------------|
D |--3---3-3-6-6-6-6-1---1-1-5-5-5-5-1---1-1-5-5-5-5--8---8-8-8-8-8-8-------|
A |--3---3-3---------1---1-1---------1---1-1----------8---8-8-8-8-8-8-------|
D |--3---3-3---------1---1-1---------1---1-1----------8---8-8-8-8-8-8-------|

e |-------------------------------------------------------------------------|
B |-------------------------------------------------------------------------|
G |-------------------------------------------------------------------------|
D |--3--3-3-3-3-3-3--1--1-1-1-1-1-1-1--1-1-1-1-1-1-1--0---0-0-0-0-0-0-------|
A |--3--3-3-3-3-3-3--1--1-1-1-1-1-1-1--1-1-1-1-1-1-1--0---0-0-0-0-0-0-------|
D |--3--3-3-3-3-3-3--1--1-1-1-1-1-1-1--1-1-1-1-1-1-1--0---0-0-0-0-0-0-------|


e |-------------------------------------------------------------------------|
B |-------------------------------------------------------------------------|
G |-------------------------------------------------------------------------|
D |--3---3-3-6-6-6-6-1---1-1-5-5-5-5-1--------------------------------------|
A |--3---3-3---------1---1-1---------1--------------------------------------|
D |--3---3-3---------1---1-1---------1--------------------------------------|

[Verse 2]
e |----------------------------------------------------------------------------------------|
B |-----------------------------------------------------------------6---6-6-6-6-6----------|
G |--10---10-10-10-10-10-----8---8-8-8-8-8------8---8-8-8-8-8-------7---7-7-7-7-7----------|
D |--10---10-10-10-10-10-----8---8-8-8-8-8------8---8-8-8-8-8-------7---7-7-7-7-7----------|
A |---8----8--8--8--8--8-----6---6-6-6-6-6------6---6-6-6-6-6-------5---5-5-5-5-5----------| 4x
D |----------------------------------------------------------------------------------------|

e |----------------------------------------------------------------------------------------|
B |----------------------------------------------------------------------------------------|
G |--10/-----------------------------------------------------------------------------------|
D |--10/-----------------------------------------------------------------------------------|
A |---8/-----------------------------------------------------------------------------------| 
D |----------------------------------------------------------------------------------------|


*Drum fill*


[Chorus]
e |-------------------------------------------------------------------------|
B |-------------------------------------------------------------------------|
G |-------------------------------------------------------------------------|
D |--3---3-3-6-6-6-6-1---1-1-5-5-5-5-1---1-1-5-5-5-5------------------------|
A |--3---3-3---------1---1-1---------1---1-1----------------------6---------|
D |--3---3-3---------1---1-1---------1---1-1---------6/8--8-8-6-8---8-------|

e |-------------------------------------------------------------------------|
B |-------------------------------------------------------------------------|
G |-------------------------------------------------------------------------|
D |--3---3-3-6-6-6-6-1---1-1-5-5-5-5-1---1-1-5-5-5-5--8---8-8-8-8-8-8-------|
A |--3---3-3---------1---1-1---------1---1-1----------8---8-8-8-8-8-8-------|
D |--3---3-3---------1---1-1---------1---1-1----------8---8-8-8-8-8-8-------|

e |-------------------------------------------------------------------------|
B |-------------------------------------------------------------------------|
G |-------------------------------------------------------------------------|
D |--3--3-3-3-3-3-3--1--1-1-1-1-1-1-1--1-1-1-1-1-1-1--0---0-0-0-0-0-0-------|
A |--3--3-3-3-3-3-3--1--1-1-1-1-1-1-1--1-1-1-1-1-1-1--0---0-0-0-0-0-0-------|
D |--3--3-3-3-3-3-3--1--1-1-1-1-1-1-1--1-1-1-1-1-1-1--0---0-0-0-0-0-0-------|

e |-------------------------------------------------------------------------|
B |-------------------------------------------------------------------------|
G |-------------------------------------------------------------------------|
D |--3---3-3-6-6-6-6-1---1-1-5-5-5-5-1---1-1-5-5-5-5------------------------|
A |--3---3-3---------1---1-1---------1---1-1----------------------6---------|
D |--3---3-3---------1---1-1---------1---1-1---------6/8--8-8-6-8---8-------|

[Bridge]
Rythm part
e |----------------------------------------------------------------|
B |----------------------------------------------------------------|
G |--6--6-6--6-6-6-------------------------------------------------|
D |--6--6-6--6-6-6--8--8-8--8-8-8--3--3-3--3-3-3--1--1-1--1-1-1----|
A |--4--4-4--4-4-4--8--8-8--8-8-8--3--3-3--3-3-3--1--1-1--1-1-1----|
D |-----------------8--8-8--8-8-8--3--3-3--3-3-3--1--1-1--1-1-1----|

Lead part:
e |-----------------------------------------------------------------|
B |-----------------------------------------------------------------|
G |-----------------------------------------------------------------|
D |------6---8~-6--------6---8~-6-------6---8~-6--8/11-10-11-10-----|
A |--6/8------------6/8-----------6/8-------------------------------| 
D |-----------------------------------------------------------------|

e |-----------------------------------------------------------------|
B |--------9---11~-9-------9---11~-9-------9---11~-9-11/14-13-14-13-|
G |--8/10-------------8/10-----------8/10---------------------------|
D |-----------------------------------------------------------------|
A |-----------------------------------------------------------------| 
D |-----------------------------------------------------------------|

e |---------------------------------------------------------------------|
B |-------9---11~-9----13-13-13-13-13-13-13-14--14--14--14--14--14--14--|
G |--8/10-----------------------------------16b-16b-16b-16b-16b-16b-16b-|
D |---------------------------------------------------------------------|
A |---------------------------------------------------------------------| 
D |---------------------------------------------------------------------|


e |----------------------------------------------------------------------------------------|
B |-----------------------------------------------------------------6---6-6-6-6-6----------|
G |--10---10-10-10-10-10-----8---8-8-8-8-8------8---8-8-8-8-8-------7---7-7-7-7-7----------|
D |--10---10-10-10-10-10-----8---8-8-8-8-8------8---8-8-8-8-8-------7---7-7-7-7-7----------|
A |---8----8--8--8--8--8-----6---6-6-6-6-6------6---6-6-6-6-6-------5---5-5-5-5-5----------| 
D |----------------------------------------------------------------------------------------|

Mute the strings at the beat of the snare
e |---------------------|
B |---------------------|
G |---------------------|
D |---x--x-x----x-x-x---|
A |---x--x-x----x-x-x---| 
D |---x--x-x----x-x-x---|

[Chorus]
e |-------------------------------------------------------------------------|
B |-------------------------------------------------------------------------|
G |-------------------------------------------------------------------------|
D |--3---3-3-6-6-6-6-1---1-1-5-5-5-5-1---1-1-5-5-5-5------------------------|
A |--3---3-3---------1---1-1---------1---1-1----------------------6---------|
D |--3---3-3---------1---1-1---------1---1-1---------6/8--8-8-6-8---8-------|

e |-------------------------------------------------------------------------|
B |-------------------------------------------------------------------------|
G |-------------------------------------------------------------------------|
D |--3---3-3-6-6-6-6-1---1-1-5-5-5-5-1---1-1-5-5-5-5--8---8-8-8-8-8-8-------|
A |--3---3-3---------1---1-1---------1---1-1----------8---8-8-8-8-8-8-------|
D |--3---3-3---------1---1-1---------1---1-1----------8---8-8-8-8-8-8-------|

e |-------------------------------------------------------------------------|
B |-------------------------------------------------------------------------|
G |-------------------------------------------------------------------------|
D |--3--3-3-3-3-3-3--1--1-1-1-1-1-1-1--1-1-1-1-1-1-1--0---0-0-0-0-0-0-------|
A |--3--3-3-3-3-3-3--1--1-1-1-1-1-1-1--1-1-1-1-1-1-1--0---0-0-0-0-0-0-------|
D |--3--3-3-3-3-3-3--1--1-1-1-1-1-1-1--1-1-1-1-1-1-1--0---0-0-0-0-0-0-------|

e |-------------------------------------------------------------------------|
B |-------------------------------------------------------------------------|
G |-------------------------------------------------------------------------|
D |--3---3-3-6-6-6-6-1---1-1-5-5-5-5-1---1-1-5-5-5-5------------------------|
A |--3---3-3---------1---1-1---------1---1-1----------------------6---------|
D |--3---3-3---------1---1-1---------1---1-1---------6/8--8-8-6-8---8-------|


[Outro]
Rythm:
e |-------------------------------------------------------------------------|
B |-------------------------------------------------------------------------|
G |-------------------------------------------------------------------------|
D |--3--3-3-3-3-3-3--1--1-1-1-1-1-1-1--1-1-1-1-1-1-1--0---0-0-0-0-0-0-------|
A |--3--3-3-3-3-3-3--1--1-1-1-1-1-1-1--1-1-1-1-1-1-1--0---0-0-0-0-0-0-------|
D |--3--3-3-3-3-3-3--1--1-1-1-1-1-1-1--1-1-1-1-1-1-1--0---0-0-0-0-0-0-------| 


[Lead:]
e |-----------------------------------------------------------------------|
B |-----------------------------------------------------------------------|
G |--10/13---13-13-13-13-13-13-12-10----10h12---12-12-12--10--10~---------|
D |----------------------------------13-----------------------------------|
A |-----------------------------------------------------------------------| 
D |-----------------------------------------------------------------------|

e |-----------------------------------------------------------------------------------------|
B |----------16-------------16-------16-------16--------------------------------------------|
G |-10/13-12-----12---13-------12-13----12-13-------12-12-12-12-----------------------------|
D |-------------------------------------------------------------13-13-13--------------------|
A |----------------------------------------------------------------------10-10-10-10-8-8-8--| 
D |-----------------------------------------------------------------------------------------|

e |--8-------------11-----11-----11-----11----------------------------------------|
B |--11b-11~---8-9----8-9----8-9----8-9-----9p8-----------------------------------|
G |---------------------------------------------10-10~----------------------------|
D |-------------------------------------------------------------------------------|
A |-------------------------------------------------------------------------------| 
D |-------------------------------------------------------------------------------|

e |-------------------------------------------------------------------------|
B |-------------------------------------------------------------------------|
G |-------------------------------------------------------------------------|
D |--3---3-3-6-6-6-6-1---1-1-5-5-5-5-1---1-1-5-5-5-5------------------------|
A |--3---3-3---------1---1-1---------1---1-1----------------------6---------|
D |--3---3-3---------1---1-1---------1---1-1---------6/8--8-8-6-8---8-6-----|



************************************

| /  Slide up
| ~  Vibrato
| b  Bend
| x  Dead note
| h  Hammer-on
| p  Pull-off  

************************************
Suggest correction
Give kudos to tab author, rate the tab!
1 2 3 4 5
comments
print report bad tab
guest
You may want to rate the tab now too:
select rating
Wanna post a correction for this tab? Suggest correction