Oops, an error
Loading. Please wait.

Interlude Tab

31 views 3 this week
no commentswrite comment
1 2 3 4 5
3 more votes to show rating
add to favorites
launch autoscroll
font size
0
reset
how to read this tab
guitar tuner
Autoscroll
slow
fast
+/-
esc
set tempo
stop
Help us to improve Ultimate-Guitar.com Take our survey!
×
Author
Difficulty
Tuning
intermediate
D A D G B E
About this tab version
Just the intro portion of this great atmospheric song, done by ear, so any revisions are welcome. Was this info helpful? Yes No
This is best played with fingers rather than a pick to enable you to play the bass notes 
on the lower strings.

I recommend lots of reverb and some delay to give the sound lots of space.

E|-----------|--------|----5-4----|-----------|--------|----5-4-----|
B|--------7--|--------|-----------|--------7--|--------|------------|
G|------6----|--------|--6-----6--|------6----|--------|--6-----6---|
D|--4h7------|--------|-----------|--4h7------|--------|------------|
A|-----------|--------|-----------|-----------|--------|------------|
D|--4--------|--------|-----------|--0--------|--------|------------|

E|-----------|--------|-----------|-----------|-----------------------|
B|-----------|--------|-----------|-----------|------------10-----10--|
G|--------6--|--------|----9-7\6--|--------7--|--9\6-7\6/9----9-7-----|
D|------7----|--------|--7--------|----4/7----|-----------------------|
A|----7------|--------|-----------|--2--------|-----------------------|
D|--7--------|--------|-----------|-----------|-----------------------|

This tab was requested from a guitar cover I did, which can be found here:
https://www.youtube.com/watch?v=er-9UXShsH8


************************************

| h  Hammer-on
| /  Slide up
| \  Slide down

************************************
Suggest correction
Give kudos to tab author, rate the tab!
1 2 3 4 5
comments
print report bad tab
guest
You may want to rate the tab now too:
select rating
Wanna post a correction for this tab? Suggest correction