Oops, an error
Loading. Please wait.

Mad World Tab

10 views 10 this week
no commentswrite comment
1 2 3 4 5
3 more votes to show rating
add to favorites
launch autoscroll
font size
0
reset
how to read this tab
guitar tuner
Autoscroll
slow
fast
+/-
esc
set tempo
stop
Help us to improve Ultimate-Guitar.com Take our survey!
×
Author
Difficulty
Tuning
intermediate
D A D G B E
Drop D tuning

[Intro]
e|-------------------------------|------------------------|
B|-------------------------------|------------------------|
G|-------------------------------|------------------------|
D|-0-0-0-12-12-12-0-0-0-10-10-10-|-0-0-0-0-0-0-0-0--------|
A|-------------------------------|-----------------8-8-8--|
D|-------------------------------|------------------------| (4x)

[Verse 1]
e|------------------------------------------------|
B|------------------------------------------------|
G|-7-7-7-7-7-7-7-7-7-7-7-7------------------------|
D|------------------------------------------------|
A|------------------------------------------------|
D|------------------------------------------------|

(The rest of the first verse is bass with drums.) 

[Pre-Chorus]
e|------------------------------------------------|
B|------------------------------------------------|
G|--------------------------9h10p9h10p9h10--------|
D|------------------------------------------------|
A|------------------------------------------------|
D|------------------------------------------------|

[Chorus]
e|--------------------------|--------------------------------|
B|--------------------------|--------------------------------|
G|--------------------------|--------------------------------|
D|-0-0--0-0-0-3-3-3-3-3-3-3-|-8-8-8-8-8-8-8-7-7-7-7-5-5-5-5--|
A|-0-0--0-0-0-3-3-3-3-3-3-3-|-8-8-8-8-8-8-8-7-7-7-7-5-5-5-5--|
D|-0-0--0-0-0-3-3-3-3-3-3-3-|-8-8-8-8-8-8-8-7-7-7-7-5-5-5-5--|

e|--------------------------|--------------------------------|
B|--------------------------|--------------------------------|
G|--------------------------|--------------------------------|
D|-0-0--0-0-0-3-3-3-3-3-3-3-|-8-8-8-8-8-8-8-7-7-7-7-7--------|
A|-0-0--0-0-0-3-3-3-3-3-3-3-|-8-8-8-8-8-8-8-7-7-7-7-7--------|
D|-0-0--0-0-0-3-3-3-3-3-3-3-|-8-8-8-8-8-8-8-7-7-7-7-7--------|

[Post-Chorus]
P.M. (Palm Mute)
e|-----------------------|--------------------------|
B|-----------------------|--------------------------|
G|-----------------------|--------------------------|
D|-----------------------|--------------------------|
A|-----------------------|--------------------------|
D|-0-0-0-0-0-0-0-0-0-0-0-|-0-0-0-0-0-0-0------------|

[Verse 2]
e|---------------------------------------|-------------------------------------|
B|---------------------------------------|-------------------------------------|
G|----------14----14-----------12----12--|-------------------------------------|
D|-12-12-12----12-----12-12-12----12-----|---12-12-12-12-12-12-12-12-15-15-15--|
A|---------------------------------------|-------------------------------------|
D|---------------------------------------|-------------------------------------|

(In the following box, only the last two notes are different)
e|---------------------------------------|-------------------------------------|
B|---------------------------------------|-------------------------------------|
G|----------14----14-----------12----12--|-------------------------------------|
D|-12-12-12----12-----12-12-12----12-----|---12-12-12-12-12-12-12-12-15-12-12--|
A|---------------------------------------|-------------------------------------|
D|---------------------------------------|-------------------------------------| (both sections 3x)

(The last time they play this)
e|----------------------------------------|------------------------------------|
B|----------------------------------------|------------------------------------|
G|----------14----14-----------12----12---|------------------------------------|
D|-12-12-12----12-----12-12-12----12------|--12-12-12-12-12-12-12-12-15-15-15--|
A|----------------------------------------|------------------------------------|
D|----------------------------------------|------------------------------------|

e|----------------------------------------|------------------------------------|
B|----------------------------------------|------------------------------------|
G|----------14----14-----------12----12---|--------------------9h10p9h10p9h10--|
D|-12-12-12----12-----12-12-12----12------|--12-12-12-12-12-12-----------------|
A|----------------------------------------|------------------------------------|
D|----------------------------------------|------------------------------------|

[Chorus]
e|--------------------------|--------------------------------|
B|--------------------------|--------------------------------|
G|--------------------------|--------------------------------|
D|-0-0--0-0-0-3-3-3-3-3-3-3-|-8-8-8-8-8-8-8-7-7-7-7-5-5-5-5--|
A|-0-0--0-0-0-3-3-3-3-3-3-3-|-8-8-8-8-8-8-8-7-7-7-7-5-5-5-5--|
D|-0-0--0-0-0-3-3-3-3-3-3-3-|-8-8-8-8-8-8-8-7-7-7-7-5-5-5-5--|

e|--------------------------|-----------------------------------|
B|--------------------------|-----------------------------------|
G|--------------------------|-----------------------------------|
D|-0-0--0-0-0-3-3-3-3-3-3-3-|-8-8-8-8-8-8-8-7-7-7-7-10-10-10-10-|
A|-0-0--0-0-0-3-3-3-3-3-3-3-|-8-8-8-8-8-8-8-7-7-7-7-10-10-10-10-|
D|-0-0--0-0-0-3-3-3-3-3-3-3-|-8-8-8-8-8-8-8-7-7-7-7-10-10-10-10-|

[Bridge] 
P.M.
e|-------------------------|-------------------------|
B|-------------------------|-------------------------|
G|-------------------------|-------------------------|
D|-------------------------|-------------------------|
A|-------------------------|-------------------------|
D|-0-0-0-0-0-0-2-2-2-2-2-2-|-3-3-3-3-3-3-5-5-5-5-5-5-|

P.M. 
e|-------------------------|-------------------------|
B|-------------------------|-------------------------|
G|-------------------------|-------------------------|
D|-------------------------|-------------------------|
A|-------------------------|-------------------------|
D|-7-7-7-7-7-7-7-7-7-7-7-8-|-7-7-7-7-7-7-7-7---------| (both sections 2x)

[Solo]
e|--------------------------------------|-------------------------------------|
B|--------------------------------------|-------------------------------------|
G|--------------------10----------------|-------------------12p10----14p12----|
D|--10h12-12-12-12-12----12-12-12-12-12-|-10h12-12-12-12-12-------12-------12-|
A|--------------------------------------|-------------------------------------|
D|--------------------------------------|-------------------------------------|

e|-----------------------|---------------------------|
B|-----------------------|---------------------------|
G|--------------------10-|---------------------------|
D|--10h12-12-12-12-12----|-12-12-12-12-12---11~------|
A|-----------------------|----------------------12~--|
D|-----------------------|---------------------------|

e|-----------------|-------------------|
B|-----------------|-------------------|
G|-10-9-------12-9-|-10-9--------------|
D|------12-10------|------12-10--------|
A|-----------------|------------12-10--|
D|-----------------|-------------------| (2x)

e|---------------------|---------------------|
B|---------------------|---------------------|
G|----------------15*--|-----------12b14-----|
D|--------12-----------|------14-------------|
A|-12/13-----12--------|-12------------------|
D|---------------------|---------------------|

[Solo Rythm Guitar]
e|-------------------------|--------------------------------|
B|-------------------------|--------------------------------|
G|------------5-5--5-5-5-5-|--------------------------------|
D|-0-0--0-0-0-5-5--5-5-5-5-|-8-8-8-8-8-8-8-7-7-7-7-7-7-7-7--|
A|-0-0--0-0-0-3-3--3-3-3-3-|-8-8-8-8-8-8-8-7-7-7-7-7-7-7-7--|
D|-0-0--0-0-0--------------|-8-8-8-8-8-8-8-7-7-7-7-7-7-7-7--|

[Outro]
e|-------------------------|--------------------------------|
B|-------------------------|--------------------------------|
G|------------5-5--5-5-5-5-|--------------------------------|
D|-0-0--0-0-0-5-5--5-5-5-5-|-8-8-8-8-8-8-8-7-7-7-7-5-5-5-5--|
A|-0-0--0-0-0-3-3--3-3-3-3-|-8-8-8-8-8-8-8-7-7-7-7-5-5-5-5--|
D|-0-0--0-0-0--------------|-8-8-8-8-8-8-8-7-7-7-7-5-5-5-5--|

e|--------------------------|--------------------------------------|
B|--------------------------|--------------------------------------|
G|--------------------------|--------------------------------------|
D|-0-0--0-0-0-3-3-3-3-3-3-3-|-8-8-8-8-8-8-8-7-7-7-7--10-10-10-10---|
A|-0-0--0-0-0-3-3-3-3-3-3-3-|-8-8-8-8-8-8-8-7-7-7-7--10-10-10-10---|
D|-0-0--0-0-0-3-3-3-3-3-3-3-|-8-8-8-8-8-8-8-7-7-7-7--10-10-10-10---|

[Outro lead]
e|-------------------------|-------------------------|
B|-------------------------|-------------------------|
G|-7-7-7-7-7-7-7-7-7-7-7-7-|-7-7-7-7-7-7-7-7-7-7-7-7-|
D|-x-x-x-x-x-x-x-x-x-x-x-x-|-x-x-x-x-x-x-x-x-x-x-x-x-|
A|-5-5-5-5-5-5-5-5-5-5-5-5-|-5-5-5-5-5-5-5-5-5-5-5-5-|
D|-------------------------|-------------------------|

e|-----------17-17-17----------15-15-15-|----------13-13-13----------13-13-13-|
B|--15-15-15----------15-15-15----------|-15-15-15----------15-15-15----------|
G|--------------------------------------|-------------------------------------|
D|--------------------------------------|-------------------------------------|
A|--------------------------------------|-------------------------------------|
D|--------------------------------------|-------------------------------------|

e|-----------17-17-17----------15-15-15-|----------13-13-13----------20-20-20-|
B|--15-15-15----------15-15-15----------|-15-15-15----------15-15-15----------|
G|--------------------------------------|-------------------------------------|
D|--------------------------------------|-------------------------------------|
A|--------------------------------------|-------------------------------------|
D|--------------------------------------|-------------------------------------| 

e|-----------17-17-17----------15-15-15-|----------13-13-13----------13-13-13-|
B|--15-15-15----------15-15-15----------|-15-15-15----------15-15-15----------|
G|--------------------------------------|-------------------------------------|
D|--------------------------------------|-------------------------------------|
A|--------------------------------------|-------------------------------------|
D|--------------------------------------|-------------------------------------|

e|-----------17-17-17----------15-15-15-|----------13-13-13----------22-22-22-|
B|--15-15-15----------15-15-15----------|-15-15-15----------15-15-15----------|
G|--------------------------------------|-------------------------------------|
D|--------------------------------------|-------------------------------------|
A|--------------------------------------|-------------------------------------|
D|--------------------------------------|-------------------------------------| 

(Then they end with)
P.M. (Palm Mute)
e|-----------------------|-------------------------|
B|-----------------------|-------------------------|
G|-----------------------|-------------------------|
D|-----------------------|-------------------------|
A|-----------------------|-------------------------|
D|-0-0-0-0-0-0-0-0-0-0-0-|-0-0-0-0-0-0-0-----------|


************************************

| h  Hammer-on
| p  Pull-off
| ~  Vibrato
| b  Bend
| *  Natural harmonic
| /  Slide up
| x  Dead note

************************************
Suggest correction
Give kudos to tab author, rate the tab!
1 2 3 4 5
comments
print report bad tab
guest
You may want to rate the tab now too:
select rating
Wanna post a correction for this tab? Suggest correction