Oops, an error
Loading. Please wait.

I Know Im A Wolf tab

706 views 3 this week
no commentswrite comment
1 2 3 4 5
2 more votes to show rating
add to favorites
×
Save as Personal and add changes to this tab that will be seen only by you. Learn more ›
×
You can save this tab as Personal to edit and correct it or add notes. All changes will be seen only by you. Learn more »
launch autoscroll
font size
0
reset
how to read this tab
guitar tuner
edit
Autoscroll
slow
fast
+/-
esc
set tempo
stop
Author
Difficulty
I Know I'm A Wolf by Young Heretics

Standard tuning
No capo


Basic shapes used during part 1 picking pattern: 
e|-0----0--------------------------------------------------------|
B|-0----0--------------------------------------------------------|
G|-2----2--------------------------------------------------------|
D|-2----0--------------------------------------------------------|
A|-3----3--------------------------------------------------------|
E|---x4----------------------------------------------------------|
(if you use your index finger on the D string, you can use it to fret the B string the last time through)

Chords used during part 2 (strumming): 
    C  D  Asus2  B7
e|--0--2--0------2------------------------------------------------|
B|--1--3--0------0------------------------------------------------|
G|--0--2--2------2------------------------------------------------|
D|--2--0--2------1------------------------------------------------|
A|--3--x--0------2------------------------------------------------|
E|--x--x--x------x------------------------------------------------|


Part 1 Riff:
   Em                      C           D      
e|---------------------------------------------------------------|
B|-----0-----0-----0-----0-----0-----0-----0---1-0---------------|
G|---2-----2-----2-----2-----2-----2-----2-----------------------|
D|-2-----2-----2-----2-----------------0-----0-------------------|
A|-------------------------3-----3-------------------------------|
E|---------------------------------------------------------------|
(play once for each line)


Dear rabbit my legs are getting weak chasing you
The snow fields wouldn't seem so big if you knew

Part 2: (play chord and let ring)
          C
That this blood on my teeth
      D
It is far beyond dry
         Asus2
And I've captured you once
      B7
But I wasn't quite right

       C
So I'm telling you 
     Asus2              (begin riff again)
That you'll be safe with me

Part 1 riff over:
Rabbit my claws are dull now so don't be afraid
I could keep you warm as long as you can just try to be brave

Part 2: (strum chords)
      C
Yes I know I'm a wolf
         D
And I've been known to bite
        Asus2
But the rest of my pack
       B7
I have left them behind
       C
And my teeth may be sharp
         D
And I've been raised to kill
        Asus2
But the thought of fresh meat
      B7
It is making me ill
       C
So I'm telling you
     D     (slow down)
That you'll be safe with . . .

Part 1 riff x4 over:
Me . . .
Ooh . . .
(the last time through the riff changes a little and breaks off abruptly)

Part 1 riff over:
So rabbit please stop looking the other way

Modified ending for Part 1 riff:
e|-------------------------------------------------------0-------|
B|-----0-----0-----0-----0-----0-----0-----0-----0-----0---------|
G|---2-----2-----2-----2-----2-----2-----2-----2-----2-----------|
D|-2-----2-----2-----2-----------------0-----0-----2-------------|
A|-------------------------3-----3-------------------------------|
E|---------------------------------------------------------------|
It's cold out there so why not stay here under my tail

            
            
Suggest correction
Creating personal tab
Creating personal tab
You can edit any tab online and save it as your Personal.

You can edit, replace or remove any tab part or add personal notes – all changes will be seen only by you.

Personal tabs can be accessed anytime from any device, even offline.
Learn more »
Give kudos to tab author, rate the tab!
1 2 3 4 5
comments
print report bad tab
guest
You may want to rate the tab now too:
select rating
Wanna post a correction for this tab? Suggest correction