Oops, an error
Loading. Please wait.

Fit 4 U Bass Tab

80 views 1 this week
no commentswrite comment
1 2 3 4 5
3 more votes to show rating
add to favorites
launch autoscroll
font size
0
reset
guitar tuner
Autoscroll
slow
fast
+/-
esc
set tempo
stop
Help us to improve Ultimate-Guitar.com Take our survey!
×
Author
Difficulty
novice
-------------------------------------------------------------------------------
                                                Fit 4 U - Young Knives
-------------------------------------------------------------------------------

Tuning: Standard
Key: Em


  INTRO         VERSE - repeat x6 for verses, x2 for outro
G|-------|-----------------------------------------------------------|
D|-------|-----------------------------------------------------------|
A|-------|--7-7-7----------------4-4-4--7-7-7------------------------|
E|-5--6--|---------7-7-7--8-8-8----------------7-7-7--8-8-8--7-7-7---|
   

    CHORUS
G|--------------------------------------------------------|
D|--------------------------------------------------------|
A|----------------7--7-7-7-7-7-7-----------------7-7-5-5--|
E|-7--7-7-7-7-7-7----------------7--7-7-7-7-7-7-----------|

G|--------------------------------------------------------|
D|--------------------------------------------------------|
A|----------------7--7-7-7-7-7-7--------------------------|
E|-7--7-7-7-7-7-7----------------7--7-7-7-7-7-7-5-5-6-6---|


   BRIDGE ('Hey runner...') x8, 9th time no open E at the end
G|--------------------|
D|--------------------|
A|-7------------------|
E|---7-7--7-8-8-7-7-0-|


End on open E string


===============================================================================
Suggest correction
Give kudos to tab author, rate the tab!
1 2 3 4 5
comments
print report bad tab
guest
You may want to rate the tab now too:
select rating
Wanna post a correction for this tab? Suggest correction