Oops, an error
Loading. Please wait.

Searching For Mr Right Bass Tab

25 views 1 this week
no commentswrite comment
1 2 3 4 5
2 more votes to show rating
add to favorites
launch autoscroll
font size
0
reset
guitar tuner
Autoscroll
slow
fast
+/-
esc
set tempo
stop
Help us to improve Ultimate-Guitar.com Take our survey!
×
Author
Difficulty
novice
[Intro] 

00:00 ~ 00:40 : Rest 


[Verse 1]

G|----------------|----------------|-------------|-------------|
D|----------------|----------------|-------------|-------------|
A|--------r-------|--------r-------|-------------|-------------|
E|----------------|----------------|--3-3---3-3--|--3-3---3-3--|


G|----------------|----------------|----------------|----------------|
D|----------------|----------------|----------------|----------------|
A|----------------|--3-3-----------|----------------|--5-5-----------|
E|--0-0-----------|----------------|--5-5-----------|----------------|


G|----------------|----------------|----------------|----------------|
D|----------------|----------------|----------------|----------------|
A|----------------|--5-5-----------|----------------|--3-3-----------|
E|--0-0-----------|----------------|--0-0-----------|----------------|


G|-------------|-------------|
D|-------------|-------------|
A|-------------|-------------|
E|--3-3---3-3--|--3-3---3-3--|


[Verse 2]

G|----------------|----------------|----------------|----------------|
D|----------------|----------------|----------------|----------------|
A|----------------|--3-3-----------|----------------|----------------|
E|--0-0-----------|----------------|--3-3-----------|--3-3-----------|


G|----------------|----------------|
D|----------------|----------------|
A|--5-5-----------|--5-5-----------|
E|----------------|----------------|


G|----------------|----------------|----------------|---------------|
D|----------------|----------------|----------------|-5-5-----------|
A|----------------|--3-3-----------|----------------|---------------|
E|--0-0-----------|----------------|--3-3-----------|-----3---------|


G|----------------|----------------|----------------|---------------|
D|----------------|----------------|----------------|---------------|
A|--5-5-----------|----------------|--5-5-----------|-5-5-----------|
E|----------------|--0-0-----------|----------------|---------------|


G|----------------|----------------|-------------|-------------|
D|----------------|----------------|-------------|-------------|
A|--------r-------|--------r-------|-------------|-------------|
E|----------------|----------------|--3-3---3-3--|--3-3---3-3--|


[Verse 3]

G|----------------|----------------|----------------|---------------|
D|----------------|----------------|----------------|-5-5-----------|
A|----------------|--3-3-----------|----------------|---------------|
E|--0-0-----------|----------------|--3-3-----------|-----3---------|


G|----------------|----------------|----------------|----------------|
D|--2-2-----------|----------------|----------------|----------------|
A|----------------|--3-3-----------|----------------|--5-5-----------|
E|----------------|----------------|--5-5-----------|----------------|


G|----------------|----------------|----------------|----------------|
D|----------------|----------------|----------------|----------------|
A|----------------|--5-5-----------|----------------|--3-3-----------|
E|--0-0-----------|----------------|--0-0-----------|----------------|


G|-------------|-------------|
D|-------------|-------------|
A|-------------|-------------|
E|--3-3---3-3--|--3-3---3-3--|


[Verse 4]

G|----------------|----------------|----------------|---------------|
D|----------------|----------------|----------------|-5-5-----------|
A|----------------|--3-3-----------|----------------|---------------|
E|--0-0-----------|----------------|--3-3-----------|-----3---------|


G|----------------|----------------|
D|----------------|----------------|
A|--5-5-----------|--------r-------|
E|----------------|----------------|


G|----------------|----------------|----------------|---------------|
D|----------------|----------------|----------------|-5-5-----------|
A|----------------|--3-3-----------|----------------|---------------|
E|--0-0-----------|----------------|--3-3-----------|-----3---------|


G|----------------|----------------|----------------|---------------|
D|----------------|----------------|----------------|---------------|
A|--5-5-----------|----------------|--5-5-----------|--7-7----------|
E|----------------|--0-0-----------|----------------|---------------|


G|----------------|----------------|----------------|----------------|
D|----------------|------4---------|------4---------|--2-2-----------|
A|------4---------|--2-------------|--2-------------|----------------|
E|--2-------------|----------------|----------------|----------------|


G|----------------|-------------|-------------|
D|----------------|-------------|-------------|
A|--3-3-----------|-------------|-------------|
E|----------------|--3-3---3-3--|--3-3---3-3--|


[Verse 5]


G|----------------|----------------|-------------|-------------|
D|----------------|----------------|-------------|-------------|
A|----------------|--3-3-----------|-------------|-------------|
E|--0-0-----------|----------------|--3-3---3-3--|--3-3---3-3--|


G|----------------|----------------|--2-2-----------|----------------|
D|----------------|----------------|----------------|----------------|
A|----------------|--3-3-----------|----------------|--5-5-----------|
E|--0-0-----------|----------------|----------------|----------------|


G|----------------|----------------|----------------|----------------|
D|----------------|----------------|--2-2-----------|----------------|
A|----------------|--5-5-----------|----------------|--3-3-----------|
E|--0-0-----------|----------------|----------------|----------------|


G|-------------|-------------|
D|-------------|-------------|
A|-------------|-------------|
E|--3-3---3-3--|--3-3---3-3--|


[Outro]

G|----------------|----------------|----------------|---------------|
D|----------------|----------------|----------------|-5-5-----------|
A|----------------|--3-3-----------|----------------|---------------|
E|--0-0-----------|----------------|--3-3-----------|-----3---------|


G|----------------|----------------|---------|---------|---------|
D|----------------|----------------|---------|------4--|------4--|
A|--5-5-----------|----------------|------4--|--2------|--2------|
E|----------------|--0-0-----------|--2------|---------|---------|


G|----------------|----------------|
D|----------------|----------------|
A|--7-------------|--7-------------|
E|----0-----------|----0-----------|



*********************

| r : rest

*********************

in regular sequence!
Suggest correction
Give kudos to tab author, rate the tab!
1 2 3 4 5
comments
print report bad tab
guest
You may want to rate the tab now too:
select rating
Wanna post a correction for this tab? Suggest correction