Oops, an error
Loading. Please wait.

Food Stamps Tab

4 views 1 this week
no commentswrite comment
1 2 3 4 5
3 more votes to show rating
add to favorites
launch autoscroll
font size
0
reset
how to read this tab
guitar tuner
Autoscroll
slow
fast
+/-
esc
set tempo
stop
Help us to improve Ultimate-Guitar.com Take our survey!
×
Author
Difficulty
novice
About this tab version
Rhythm guitar only, no lead guitar. Was this info helpful? Yes No
[Intro] 

1 bar, play once

e|---------|
B|---------|
G|---------|
D|---------|
A|5-5-4----|
E|3-3-2----|


[Verse 1] 

Listen to song for rhythm, repeat until chorus

e|---------------------------------------------------------------------------|
B|---------------------------------------------------------------------------|
G|---------------------------------------------------------------------------|
D|5-5-5-5-5-5-5-5------------------------------------------------------------|
A|3-3-3-3-3-3-3-3-7-7-7-7-7-7-7-7--------------------------------------------|
E|----------------5-5-5-5-5-5-5-5--------------------------------------------|


[Chorus] 

e|---------------------------------------------------------------------------|
B|---------------------------------------------------------------------------|
G|---------------------------------------------------------------------------|
D|5-5------------------5-5---------------------------------------------------|
A|3-3----7-7--3-3-3-3--3-3----7-7--3-3-3-3-----------------------------------|
E|-------5-5--1-1-1-1---------5-5--1-1-1-1-----------------------------------|

e|---------------------------------------------------------------------------|
B|---------------------------------------------------------------------------|
G|---------------------------------------------------------------------------|
D|5-5-5-5-5-5-5-5-7-7-7-7-7-7-7-7-5-5-5-5-5-5-5-5-9-9-9-9-9-9-9-9------------|
A|3-3-3-3-3-3-3-3-5-5-5-5-5-5-5-5-3-3-3-3-3-3-3-3-7-7-7-7-7-7-7-7------------|
E|---------------------------------------------------------------------------|(x2)


[Harmonica Solo]

Listen to song for rhythm

e|------------------------------------------------------------------------------------------------|
B|------------------------------------------------------------------------------------------------|
G|------------------------------------------------------------------------------------------------|
D|7-7-7-7-9-9-9-9-5-5-5-5-5-5-5-5-7-7-7-7-9-9-9-9-5-5-5-5-5-5-5-5-7-7-7-7-9-9-9-9-5-5-5-5-5-5-5-5-|
A|5-5-5-5-7-7-7-7-3-3-3-3-3-3-3-3-5-5-5-5-7-7-7-7-3-3-3-3-3-3-3-3-5-5-5-5-7-7-7-7-3-3-3-3-3-3-3-3-|
E|------------------------------------------------------------------------------------------------|

e|---------------------------------------------------------------------------|
B|---------------------------------------------------------------------------|
G|---------------------------------------------------------------------------|
D|7-7-7-7-9-9-9-9-5-5-5-5-5-3-3-3----9-9-9------7-7-7------------------------|
A|5-5-5-5-7-7-7-7-3-3-3-3-3-1-1-1----7-7-7------5-5-5------------------------|
E|---------------------------------------------------------------------------|


[Outro]

e|------------------------|
B|------------------------|
G|------------------------|
D|-5-5--5-----------------|
A|-3-3--3---3-2-3---------|
E|------------------------|

STRUCTURE:

Intro
Verse
Chorus
Harmonica Solo
Verse
Chorus
Outro
Suggest correction
Give kudos to tab author, rate the tab!
1 2 3 4 5
comments
print report bad tab
guest
You may want to rate the tab now too:
select rating
Wanna post a correction for this tab? Suggest correction