Oops, an error
Loading. Please wait.

High tab

237 views 1 this week
no commentswrite comment
1 2 3 4 5
3 more votes to show rating
add to favorites
×
Save as Personal and add changes to this tab that will be seen only by you. Learn more ›
×
You can save this tab as Personal to edit and correct it or add notes. All changes will be seen only by you. Learn more »
launch autoscroll
font size
0
reset
how to read this tab
guitar tuner
edit
Autoscroll
slow
fast
+/-
esc
set tempo
stop
-------------------------------------------------------------------------------
                             High - Young Rising Sons 
-------------------------------------------------------------------------------

Tabbed by:Mark Donohue 
E-mail:mwdonohue97@gmail.com

Tuning:Standard

e|---7-5-7-5---7-5---------7-5-7-5---7-5-------------------------------------| Intro 
B|-----------------8---8-----------------8---8-------------------------------|
G|-------------------7---------------------7---------------------------------|
D|---------------------------------------------------------------------------|
A|---------------------------------------------------------------------------|
E|---------------------------------------------------------------------------|

e|---------------------------------------------------------------------------| Verse 1 
B|-------------------------------------------8-7-----------------------------|
G|-------------------4-------------------4-------9-7-------------------------| Inside my heart there's 
D|---9-7-9-7-7\5-7-5-----9-7-9-7-7\5-7-5-------------10-9/12\9---------------| an emptiness/A heavy head on 
A|---------------------------------------------------------------------------| a hollowed chest/Soft spoken
E|---------------------------------------------------------------------------| like a disease 

e|---------------------------------------------------------------------------| Verse 1 
B|---------------------7-8-8---8-10-10---------------------------------------|
G|---------------------------7-----------------------------------------------| Is the way to incomplete me/
D|---7-9-7-9-7-5-0-5---------------------7-9-7-7-9-7-5-5---------------------| Can you shake this soul of 
A|---------------------------------------------------------------------------| mine?/Shoot my breath to the
E|---------------------------------------------------------------------------| highest high 

e|---------------------------------------------------------------------------| Verse 1 
B|---7-8-8---8-10-10---------------------------------------------------------|
G|---------7-----------------------------------------------------------------| Tell your truth or dress a 
D|---------------------9-7-9-7-9-7-5-0-5---9-7-9-7-9-7-5-5-------------------| lie/Is this hello,or is it 
A|---------------------------------------------------------------------------| goodbye?/Is this the low,or 
E|---------------------------------------------------------------------------| is this the...

e|---------7-8---------7-8---------7-8-----------------------7-8-------------| Chorus 
B|---------------------------------------------------------------------------|
G|---------------------------------------------7-----------------------------| High/High/High/Just let it 
D|---5h7/9-------5h7/9-------5h7/9-------9-9-9---9-7-5-5h7/9-----------------| go,enjoy the ride 
A|---------------------------------------------------------------------------|
E|---------------------------------------------------------------------------|

e|-----------------------7-8---------7-8-------------------------------------| Chorus 
B|---------------------------------------------------------------------------|
G|---------7-----------------------------------------------------------------| Without the low there ain't a 
D|---9-9-9---9-7-5-5h7/9-------5h7/9-----------------------------------------| high/High 
A|---------------------------------------------------------------------------|
E|---------------------------------------------------------------------------|

e|---------------------------------------------------------------------------| Verse 2 
B|-----------------------------------------8-7-------------------------------|
G|-------------------4-----------------4-------9-7---------------------------| I found a ghost in the city 
D|---9-7-9-7-7\5-7-5-----9-7-9-7-9-7\5-------------10-9/12\9-----------------| lights/Where all my wrongs 
A|---------------------------------------------------------------------------| have turned to right/Heart 
E|---------------------------------------------------------------------------| broken into pieces 

e|---------------------------------------------------------------------------| Verse 2 
B|---------------------7-8-8---8-10-10---------------------------------------|
G|---------------------------7-----------------------------------------------| It ain't a way that we should 
D|---9-7-9-7-9-7-0-5---------------------9-7-9-7-7-9-7-5-5-------------------| live/From the ground up we
A|---------------------------------------------------------------------------| will rise/I tip my hat to the
E|---------------------------------------------------------------------------| highest highs 

e|---------------------------------------------------------------------------| Verse 2 
B|---7-8-8-----8-10-10-------------------------------------------------------|
G|---------7-7---------------------------------------------------------------| Everyday is a compromise/
D|-----------------------9-7-9-7-9-7-5-5-------------------------------------| If this is low,I'm looking 
A|---------------------------------------------------------------------------| for...
E|---------------------------------------------------------------------------|

e|---------7-8---------7-8---------7-8-----------------------7-8-------------| Chorus 
B|---------------------------------------------------------------------------|
G|---------------------------------------------7-----------------------------| High/High/High/Just let it 
D|---5h7/9-------5h7/9-------5h7/9-------9-9-9---9-7-5-5h7/9-----------------| go,enjoy the ride 
A|---------------------------------------------------------------------------|
E|---------------------------------------------------------------------------|

e|-----------------------7-8---------7-8-------------------------------------| Chorus 
B|---------------------------------------------------------------------------|
G|---------7-----------------------------------------------------------------| Without the low there ain't a 
D|---9-9-9---9-7-5-5h7/9-------5h7/9-----------------------------------------| high/High 
A|---------------------------------------------------------------------------|
E|---------------------------------------------------------------------------|

e|---------------------------------------------------------------------------| Verse 3 
B|-----------------------8---------------------------------------------------|
G|---9-9-7---7-9---9-9-9---------------7-------------------------------------| Cause all we need is love/
D|---------9---------------7-9---9-9-9---5-7---9-7---------------------------| But love needs sacrifice/
A|-------------------------------------------------10-9-7--------------------| But it's sure worth the prize/
E|---------------------------------------------------------------------------| If you get it right 

e|---------------------------------------------------------------------------| Verse 3 
B|-----------------------8---------------------------------------------------|
G|---9-9-7---7-9---9-9-9---------------7-------------------------------------| Cause way up in the sky/
D|---------9---------------7-9---9-9-9---5-7---9-7-5-5-----------------------| There's no such thing as 
A|---------------------------------------------------------------------------| blind/So tell me is this low,
E|---------------------------------------------------------------------------| or is this the...

e|---------7-8---------7-8---------7-8-----------------------7-8-------------| Chorus x2 
B|---------------------------------------------------------------------------|
G|---------------------------------------------7-----------------------------| High/High/High/Just let it 
D|---5h7/9-------5h7/9-------5h7/9-------9-9-9---9-7-5-5h7/9-----------------| go,enjoy the ride 
A|---------------------------------------------------------------------------|
E|---------------------------------------------------------------------------|

e|-----------------------7-8---------7-8-------------------------------------| Chorus x2  
B|---------------------------------------------------------------------------|
G|---------7-----------------------------------------------------------------| Without the low there ain't a 
D|---9-9-9---9-7-5-5h7/9-------5h7/9-----------------------------------------| high/High 
A|---------------------------------------------------------------------------|
E|---------------------------------------------------------------------------|

e|---7-5-7-5---7-5-----------------------------------------------------------| Final 
B|-----------------8---8-----------------------------------------------------|
G|-------------------7-------------------------------------------------------|
D|---------------------------------------------------------------------------|
A|---------------------------------------------------------------------------|
E|---------------------------------------------------------------------------|

************************************

Key:

| /   Slide up
| \   Slide down
| h   Hammer on 
| -   No pause 
| --- Pause 

************************************

            
            
Suggest correction
Creating personal tab
Creating personal tab
You can edit any tab online and save it as your Personal.

You can edit, replace or remove any tab part or add personal notes – all changes will be seen only by you.

Personal tabs can be accessed anytime from any device, even offline.
Learn more »
Give kudos to tab author, rate the tab!
1 2 3 4 5
comments
print report bad tab
guest
You may want to rate the tab now too:
select rating
Wanna post a correction for this tab? Suggest correction