Oops, an error
Loading. Please wait.

12 Fingers Tab

49 views 6 this week
no commentswrite comment
1 2 3 4 5
3 more votes to show rating
add to favorites
launch autoscroll
font size
0
reset
how to read this tab
guitar tuner
Autoscroll
slow
fast
+/-
esc
set tempo
stop
Help us to improve Ultimate-Guitar.com Take our survey!
×
Author
Difficulty
intermediate
About this tab version
Almost all of the lead guitar. There are two guitars so it's hard to pick out what each is playing especially during the chorus but this should be close. Was this info helpful? Yes No
[Intro]
e|--------14-------11--------------------------------------------------------|
B|-----11-------11-------11-14----14-11----11----11--------------------------|
G|--11-------11-------11-------11-------11----13-----------------------------|
D|---------------------------------------------------------------------------|
A|---------------------------------------------------------------------------|
E|---------------------------------------------------------------------------|

e|--------14-------11----------------11-------14-----------------------------|
B|-----11-------11-------11-14----11-------11--------------------------------|
G|--11-------11-------11-------11-------11-----------------------------------|
D|---------------------------------------------------------------------------|
A|---------------------------------------------------------------------------|
E|---------------------------------------------------------------------------|

e|--------14-------11--------------------------------------------------------|
B|-----11-------11-------11-14----14-11----11----11--------------------------|
G|--11-------11-------11-------11-------11----13-----------------------------|
D|---------------------------------------------------------------------------|
A|---------------------------------------------------------------------------|
E|---------------------------------------------------------------------------|

e|--------14-------11----------------11-------14-----------------------------|
B|-----11-------11-------11-14----14-------14--------------------------------|
G|--11-------11-------11-------11-------11-----------------------------------|
D|---------------------------------------------------------------------------|
A|---------------------------------------------------------------------------|
E|---------------------------------------------------------------------------|

[Verse]
  
     Padded by locks the door knob singed
e|---------------------------------------------------------------------------|
B|---11----------------------------------------------------------------------|
G|---11----------------------------------------------------------------------|
D|---11----------------------------------------------------------------------|
A|---------------------------------------------------------------------------|
E|---------------------------------------------------------------------------|
     A rusty close to a doorknob hinge
e|---7-----------------------------------------------------------------------|
B|---7-----------------------------------------------------------------------|
G|---8-----------------------------------------------------------------------|
D|---9-----------------------------------------------------------------------|
A|---------------------------------------------------------------------------|
E|---------------------------------------------------------------------------|
   Remembering the sounds we used
e|---------------------------------------------------------------------------|
B|---11----------------------------------------------------------------------|
G|---11----------------------------------------------------------------------|
D|---11----------------------------------------------------------------------|
A|---------------------------------------------------------------------------|
E|---------------------------------------------------------------------------|
  to know
e|---7-----------------------------------------------------------------------|
B|---7-----------------------------------------------------------------------|
G|---8-----------------------------------------------------------------------|
D|---9-----------------------------------------------------------------------|
A|---------------------------------------------------------------------------|
E|---------------------------------------------------------------------------|
     But when those sounds sang from our halls
e|---------------------------------------------------------------------------|
B|---11----------------------------------------------------------------------|
G|---11----------------------------------------------------------------------|
D|---11----------------------------------------------------------------------|
A|---------------------------------------------------------------------------|
E|---------------------------------------------------------------------------|
     The backstop pressed against bleached walls
e|---7-----------------------------------------------------------------------|
B|---7-----------------------------------------------------------------------|
G|---8-----------------------------------------------------------------------|
D|---9-----------------------------------------------------------------------|
A|---------------------------------------------------------------------------|
E|---------------------------------------------------------------------------|
    Do you remember the sound of snow?
e|-------6-------4--6----------9---7-----------------------------------------|
B|-----------7---------------------7-----------------------------------------|
G|---4/6---------------------------8-----------------------------------------|
D|---------------------------------9-----------------------------------------|
A|---------------------------------------------------------------------------|
E|---------------------------------------------------------------------------|
And these flames,            boil in reclaim
e|-----------------------------------------------------------------------------|
B|---------------------------11~-----------------------------------------------|
G|---11-11-11-11-13-13-13-13---------11-11-11-11-11-11-11-11-13-13-13-15-15-15-|
D|-----------------------------------------------------------------------------|
A|-----------------------------------------------------------------------------|
E|-----------------------------------------------------------------------------|

[Chorus]
    I can follow you Your heart beats just like I 
e|---------------------------------------------------------------------------|
B|--11--(x32)----------------------------------------------------------------|
G|--11--(x32)----------------------------------------------------------------|
D|---------------------------------------------------------------------------|
A|---------------------------------------------------------------------------|
E|---------------------------------------------------------------------------|
   Wanted it to and you want it to
e|------------------------------------------------14-(x12)-------14-14-------|
B|--12--(x16)----------------------11(x8)--11/14--14-(x12)-11/14-14-14-------|
G|--11--(x16)----------------------11(x8)------------------------------------|
D|---------------------------------------------------------------------------|
A|---------------------------------------------------------------------------|
E|---------------------------------------------------------------------------|
    I can follow you Your heart beats just like I 
e|-----------------------------------------------14--------------------------|
B|--11--(x29)------------------------------11/14-----------------------------|
G|--11--(x29)----------------------------------------------------------------|
D|---------------------------------------------------------------------------|
A|---------------------------------------------------------------------------|
E|---------------------------------------------------------------------------|
   Wanted it to and you want it to
e|---------------------------------------------------------------------------|
B|--12--(x16)---------------------11(x16)------------------------------------|
G|--11--(x16)---------------------11(x16)------------------------------------|
D|---------------------------------------------------------------------------|
A|---------------------------------------------------------------------------|
E|---------------------------------------------------------------------------|
    Behind the road you wait for long
e|---------------------------------------------------------------------------|
B|--12-(x32)-----------------------------------------------------------------|
G|--11-(x32)-----------------------------------------------------------------|
D|---------------------------------------------------------------------------|
A|---------------------------------------------------------------------------|
E|---------------------------------------------------------------------------|

[Break]
There are two guitars here playing different riffs.

Guitar 1
e|--------14-------11--------------------------------------------------------|
B|-----11-------11-------11-14----14-11----11----11--------------------------|
G|--11-------11-------11-------11-------11----13-----------------------------|
D|---------------------------------------------------------------------------|
A|---------------------------------------------------------------------------|
E|---------------------------------------------------------------------------|

e|--------14-------11----------------11-------14-----------------------------|
B|-----11-------11-------11-14----14-------14--------------------------------|
G|--11-------11-------11-------11-------11-----------------------------------|
D|---------------------------------------------------------------------------|
A|---------------------------------------------------------------------------|
E|---------------------------------------------------------------------------|

Guitar 2
e|---------------------------------------------------------------------------|
B|--------------------------11-11-11-11-11-11-14-14--------------------------|
G|--11-11-11-11-13-13-13-13--------------------------------------------------|
D|---------------------------------------------------------------------------|
A|---------------------------------------------------------------------------|
E|---------------------------------------------------------------------------|

e|---------------------------------------------------------------------------|
B|--------------------------11-11-11-11-11b12r11b12--------------------------|
G|--11-11-11-11-13-13-13-13--------------------------------------------------|
D|---------------------------------------------------------------------------|
A|---------------------------------------------------------------------------|
E|---------------------------------------------------------------------------|

[Verse]

     So I said follow me down this time
e|---------------------------------------------------------------------------|
B|---11----------------------------------------------------------------------|
G|---11----------------------------------------------------------------------|
D|---11----------------------------------------------------------------------|
A|---------------------------------------------------------------------------|
E|---------------------------------------------------------------------------|
     I wrote the rules but you’ve got the time
e|---7-----------------------------------------------------------------------|
B|---7-----------------------------------------------------------------------|
G|---8-----------------------------------------------------------------------|
D|---9-----------------------------------------------------------------------|
A|---------------------------------------------------------------------------|
E|---------------------------------------------------------------------------|
    So can you help me    I’ve got to break free
e|-------6-------4--6----------9---7-----------------------------------------|
B|-----------7---------------------7-----------------------------------------|
G|---4/6---------------------------8-----------------------------------------|
D|---------------------------------9-----------------------------------------|
A|---------------------------------------------------------------------------|
E|---------------------------------------------------------------------------|
from these chains oh from these chains
e|-----------------------------------------------------------------------------|
B|---------------------------11~-----------------------------------------------|
G|---11-11-11-11-13-13-13-13---------11-11-11-11-11-11-11-11-13-13-13-15-15-15-|
D|-----------------------------------------------------------------------------|
A|-----------------------------------------------------------------------------|
E|-----------------------------------------------------------------------------|

[Chorus]

    I can follow you Your heart beats just like I 
e|---------------------------------------------------------------------------|
B|--11--(x32)----------------------------------------------------------------|
G|--11--(x32)----------------------------------------------------------------|
D|---------------------------------------------------------------------------|
A|---------------------------------------------------------------------------|
E|---------------------------------------------------------------------------|
   Wanted it to and you want it to
e|------------------------------------------------14-(x12)-------14-14-------|
B|--12--(x16)----------------------11(x8)--11/14--14-(x12)-11/14-14-14-------|
G|--11--(x16)----------------------11(x8)------------------------------------|
D|---------------------------------------------------------------------------|
A|---------------------------------------------------------------------------|
E|---------------------------------------------------------------------------|
    I can follow you Your heart beats just like I 
e|-----------------------------------------------14--------------------------|
B|--11--(x29)------------------------------11/14-----------------------------|
G|--11--(x29)----------------------------------------------------------------|
D|---------------------------------------------------------------------------|
A|---------------------------------------------------------------------------|
E|---------------------------------------------------------------------------|
   Wanted it to and you want it to
e|---------------------------------------------------------------------------|
B|--12--(x16)---------------------11(x16)------------------------------------|
G|--11--(x16)---------------------11(x16)------------------------------------|
D|---------------------------------------------------------------------------|
A|---------------------------------------------------------------------------|
E|---------------------------------------------------------------------------|
    
[Bridge]
Two Guitars again

Guitar 1
e|--------14-------11--------------------------------------------------------|
B|-----11-------11-------11-14----14-11----11----11--------------------------|
G|--11-------11-------11-------11-------11----13-----------------------------|
D|---------------------------------------------------------------------------|
A|---------------------------------------------------------------------------|
E|---------------------------------------------------------------------------|

e|--------14-------11----------------11-------14-----------------------------|
B|-----11-------11-------11-14----14-------14--------------------------------|
G|--11-------11-------11-------11-------11-----------------------------------|
D|---------------------------------------------------------------------------|
A|---------------------------------------------------------------------------|
E|---------------------------------------------------------------------------|

e|------6---------6-----------2----------------------------------------------|
B|----7---------7-----------4------------------------------------------------|
G|--8---------7-----------4--------------------------------------------------|
D|---------------------------------------------------------------------------|
A|---------------------------------------------------------------------------|
E|---------------------------------------------------------------------------|

Guitar 2
e|---------------------------------------------------------------------------|
B|---------------------------------------------------------------------------|
G|--11-(x12)---------11-(x12)------------------------------------------------|
D|---------------------------------------------------------------------------|
A|-----------9-(x4)-----------9-(x4)-----------------------------------------|
E|---------------------------------------------------------------------------|

e|------------------7--------------------------------------------------------|
B|------------------7--------------------------------------------------------|
G|--8-(x8)-7-(x8)---8--------------------------------------------------------|
D|------------------9--------------------------------------------------------|
A|---------------------------------------------------------------------------|
E|----------------------7-(x8)-----------------------------------------------|

Your eyes they fall before us
e|---7----------------6------------------------------------------------------|
B|---7----------------7------------------------------------------------------|
G|---8----------------8------------------------------------------------------|
D|---9-----------------------------------------------------------------------|
A|---------------------------------------------------------------------------|
E|---------------------------------------------------------------------------|
Your sighs are  all  around
e|---7----------------6------------------------------------------------------|
B|---7----------------7------------------------------------------------------|
G|---8----------------8------------------------------------------------------|
D|---9-----------------------------------------------------------------------|
A|---------------------------------------------------------------------------|
E|---------------------------------------------------------------------------|
  Inside the walls have fallen
e|---7----------------6------------------------------------------------------|
B|---7----------------7------------------------------------------------------|
G|---8----------------8------------------------------------------------------|
D|---9-----------------------------------------------------------------------|
A|---------------------------------------------------------------------------|
E|---------------------------------------------------------------------------|
 And now, you’re all alone
e|---------------------------------------------------------------------------|
B|---12-(x16)----------------------------------------------------------------|
G|---11-(x16)----------------------------------------------------------------|
D|---------------------------------------------------------------------------|
A|---------------------------------------------------------------------------|
E|---------------------------------------------------------------------------|

[Chorus]

    I can follow you Your heart beats just like I 
e|---------------------------------------------------------------------------|
B|--11--(x32)----------------------------------------------------------------|
G|--11--(x32)----------------------------------------------------------------|
D|---------------------------------------------------------------------------|
A|---------------------------------------------------------------------------|
E|---------------------------------------------------------------------------|
   Wanted it to and you want it to
e|------------------------------------------------14-(x12)-------14-14-------|
B|--12--(x16)----------------------11(x8)--11/14--14-(x12)-11/14-14-14-------|
G|--11--(x16)----------------------11(x8)------------------------------------|
D|---------------------------------------------------------------------------|
A|---------------------------------------------------------------------------|
E|---------------------------------------------------------------------------|
    I can follow you Your heart beats just like I 
e|-----------------------------------------------14--------------------------|
B|--11--(x29)------------------------------11/14-----------------------------|
G|--11--(x29)----------------------------------------------------------------|
D|---------------------------------------------------------------------------|
A|---------------------------------------------------------------------------|
E|---------------------------------------------------------------------------|
   Wanted it to and you want it to
e|---------------------------------------------------------------------------|
B|--12--(x16)---------------------11(x16)------------------------------------|
G|--11--(x16)---------------------11(x16)------------------------------------|
D|---------------------------------------------------------------------------|
A|---------------------------------------------------------------------------|
E|---------------------------------------------------------------------------|

[Outro]

e|--------14-------11--------------------------------------------------------|
B|-----11-------11-------11-14----14-11----11----11--------------------------|
G|--11-------11-------11-------11-------11----13-----------------------------|
D|---------------------------------------------------------------------------|
A|---------------------------------------------------------------------------|
E|---------------------------------------------------------------------------|

e|--------14-------11----------------11-------14-----------------------------|
B|-----11-------11-------11-14----11-------11--------------------------------|
G|--11-------11-------11-------11-------11-----------------------------------|
D|---------------------------------------------------------------------------|
A|---------------------------------------------------------------------------|
E|---------------------------------------------------------------------------|

e|--------14-------11--------------------------------------------------------|
B|-----11-------11-------11-14----14-11----11----11--------------------------|
G|--11-------11-------11-------11-------11----13-----------------------------|
D|---------------------------------------------------------------------------|
A|---------------------------------------------------------------------------|
E|---------------------------------------------------------------------------|

e|--------14-------11----------------11-------14-----------------------------|
B|-----11-------11-------11-14----14-------14--------------------------------|
G|--11-------11-------11-------11-------11-----------------------------------|
D|---------------------------------------------------------------------------|
A|---------------------------------------------------------------------------|
E|---------------------------------------------------------------------------|



************************************

| r   Release
| b   Bend
| /   Slide up
| ~   Vibrato

************************************
Suggest correction
Give kudos to tab author, rate the tab!
1 2 3 4 5
comments
print report bad tab
guest
You may want to rate the tab now too:
select rating
Wanna post a correction for this tab? Suggest correction