Oops, an error
Loading. Please wait.

Apartment tab

version 2
version 2

Whole song

53,283 views 84 this week
8 commentsread comments
1 2 3 4 5
x 45
add to favorites
×
Save as Personal and add changes to this tab that will be seen only by you. Learn more ›
×
You can save this tab as Personal to edit and correct it or add notes. All changes will be seen only by you. Learn more »
launch autoscroll
font size
0
reset
how to read this tab
guitar tuner
edit
Autoscroll
slow
fast
+/-
esc
set tempo
stop
Author
Apartment - Young the Giant
Tabbed by:Nick Rohla
Email:nickrohla@gmail.com
Tuning:standard

[Intro/Verse] throughout 
e|-0-0-0--0-0-0--0-0--0-0-0--0-0-0----5-5-5--5-5-5--0--0-0-0--0-0-0-|
B|-0-0-0--0-0-0--7\5--5-5-5--5-5-5--7-5-5-5--5-5-5--7\-0-0-0--0-0-0-|
G|-4-4-4--4-4-4--6\4--4-4-4--4-4-4--7-6-6-6--6-6-6--6\-4-4-4--4-4-4-| x 3
D|-4-4-4--4-4-4--7\5--5-5-5--5-5-5--7-5-5-5--5-5-5--7\-4-4-4--4-4-4-|
A|-5-5-5--5-5-5---------------------9\7-7-7--7-7-7-----5-5-5--5-5-5-|
E|-x-x-x--x-x-x-----------------------5-5-5--5-5-5-----x-x-x--x-x-x-|

e|----------5-5-----------7-7-----------5-5--55555555-|
B|----------7-7-----------8-8-----------5-5--77777777-|
G|----------6-6-----------7-7-----------6-6--66666666-| x 2
D|----------7-7-----------9-9-----------5-5--77777777-|
A|-2-0-2/5--5-5--2-0-2/7--7-7--2-0-2-2--7-7--55555555-|
E|--------------------------------------5-5-----------|

(Alright Part)
e|------------------------------------------------------------------|
B|--7----12--7----12--77777777--55555555----------------------------|
G|--6----11--6----11--66666666--66666666----------------------------|
D|--7----12--7----12--77777777--77777777----------------------------|
A|--X-----X--X-----X--XXXXXXXX--XXXXXXXX----------------------------|
E|--5----10--5----10--55555555--55555555----------------------------|

(I hit the sidewalks)
e|--------------------00000000--00000000--33333333------------------|
B|--1212121212121212--55555555--55555555--33333333------------------|
G|--1111111111111111--55555555--44444444--00000000------------------|
D|--1212121212121212--44444444--55555555--00000000------------------|
A|---X-X-X-X-X-X-X-X--XXXXXXXX--XXXXXXXX--22222222------------------|
E|--1010101010101010--55555555--33333333--33333333------------------|

[Solo]
e|------------------------------------------------------|
B|-0-------0--------------------------------------------|
G|-11\9\6--11\9\6--6/9/11~------14-(14)----14-14-12-11~-|
D|---------------------------12---------12--------------|
A|------------------------------------------------------|
E|------------------------------------------------------|

************************************

| \    Slide down
| x    Dead note
| /    Slide up
| (n)  Ghost note
| ~    Vibrato

************************************

            
            
Suggest correction
Creating personal tab
Creating personal tab
You can edit any tab online and save it as your Personal.

You can edit, replace or remove any tab part or add personal notes – all changes will be seen only by you.

Personal tabs can be accessed anytime from any device, even offline.
Learn more »
comments
print report bad tab
8 comments total. Showing first comments.
0 reply
ballaman82 137 Mar 16, 2012 08:54 AM

This sounds completely perfect for the verses, but the chorus definitely sounds better with an Am7 instead of the regular Am.
Other than that tiny change, this is brilliantly done

0 reply
mcantu111 10 Sep 02, 2012 01:04 PM

Very good, any chance you have the pre-chorus he plays right before the first "I hit the sidewalk.."?

0 reply
ZombieLvl93 41 Sep 23, 2013 08:38 PM

This tab is perfect and just what I was looking for and I finally have those bar chords at the chorus down! But for those who have trouble I found an easier way to play the chorus is:
D, Am, Em, and G

guest
You may want to rate the tab now too:
select rating
Wanna post a correction for this tab? Suggest correction