Oops, an error
Loading. Please wait.

Art Exhibit Tab

version 1
version 1

Intro

  • Ukulele intro tabbed out for guitar.

Whole song

  • Clear tab for this song's picking pattern. No othe... Show more
1,222 views 69 this week
no commentswrite comment
1 2 3 4 5
x 8
add to favorites
launch autoscroll
font size
0
reset
how to read this tab
guitar tuner
×
Best way to learn
"Art Exhibit"
Autoscroll
slow
fast
+/-
esc
set tempo
stop
Author
Difficulty
About this tab version
Ukulele intro tabbed out for guitar. Was this info helpful? Yes No
Art Exhibit
Young the Giant
Standard Tuning

Ukulele tabbed on Guitar

[Intro]
e|---3---------3---3---------3----4---------4---4----------------------------|
B|------5-------------5--------------5-------------5-------------------------|
G|---------5-------------5--------------7--------------7---------------------|
D|---------------------------------------------------------------------------|
A|---------------------------------------------------------------------------|
E|---------------------------------------------------------------------------|

e|-4---5--------5----5----------5-----5-----------5-----5-----------5--------|
B|--------5--------------5----------------7-----------------7----------------|
G|-----------6---------------6----------------8------------------8-----------|
D|---------------------------------------------------------------------------|
A|---------------------------------------------------------------------------|
E|---------------------------------------------------------------------------|
Suggest correction
comments
print report bad tab
guest
You may want to rate the tab now too:
select rating
Wanna post a correction for this tab? Suggest correction