Oops, an error
Loading. Please wait.

Art Exhibit Ukulele Chords

version 2
version 2

Whole song

  • This version sound just like the studio version.
358 views 51 this week
no commentswrite comment
1 2 3 4 5
x 4
add to favorites
launch autoscroll
font size
0
reset
transpose
0
reset
simplify chords
display chords
guitar tuner
Autoscroll
slow
fast
+/-
esc
set tempo
stop
Help us to improve Ultimate-Guitar.com Take our survey!
×
Author
Difficulty
intermediate
About this tab version
This version sound just like the studio version. Was this info helpful? Yes No
Strumming
chorus 120 bpm
1
&
2
&
3
&
4
&
Play
Is this strumming pattern correct? Yes No
Art Exhibit - Young The Giant           Tabbed by: Lesmua Tewrast
~~~~~~~~~~~~~~~~~~~~~~~~~~~~~~~~~~~~~~~~~~~~~~~~~~~~~~~~~~~~~~~~
This is a tab for the beautiful song: Art Exhibit. 
This is for the ukulele. The other versions were either just chords/strumming
with no picking or just picking and no chords/strumming. So I made this tab 
which is both and is the actual picking that young the giant uses.

NO CAPO




[Intro]

A|---------------------------------------------------------------------------|
E|---------0-----------------------------0-----------------------------------|
A|--------------0------------------------------0-----------------------------|
G|--0-----------------0------------0-----------------0-----------------------|


A|---------------------------------------------------------------------------|
E|---------0-----------------------------0-----------------------------------|
A|--------------0------------------------------0-----------------------------|
G|--1-----------------1------------1-----------------1-----------------------|

A|---------------------------------------------------------------------------|
E|---------2-----------------------------2-----------------------------------|
A|--------------3------------------------------3-----------------------------|
G|--2-----------------2------------2-----------------2-----------------------|

A|---------------------------------------------------------------------------|
E|---------0-----------------------------0-----------------------------------|
A|--------------1------------------------------1-----------------------------|
G|--2-----------------2------------2-----------------2-----------------------|


[Verse 1]

                                   I-----------------
A|---------------------------------------------------------------------------|
E|---------0-----------------------------0-----------------------------------|
A|--------------0------------------------------0-----------------------------|
G|--0-----------------0------------0-----------------0-----------------------|

    I                                       I
A|---------------------------------------------------------------------------|
E|---------0-----------------------------0-----------------------------------|
A|--------------0------------------------------0-----------------------------|
G|--1-----------------1------------1-----------------1-----------------------|

   saw                                               A
A|---------------------------------------------------------------------------|
E|---------2-----------------------------2-----------------------------------|
A|--------------3------------------------------3-----------------------------|
G|--2-----------------2------------2-----------------2-----------------------|

   picture                        of       you      to-
A|---------------------------------------------------------------------------|
E|---------0-----------------------------0-----------------------------------|
A|--------------1------------------------------1-----------------------------|
G|--2-----------------2------------2-----------------2-----------------------|

   Day                             A-----------------
A|---------------------------------------------------------------------------|
E|---------0-----------------------------0-----------------------------------|
A|--------------0------------------------------0-----------------------------|
G|--0-----------------0------------0-----------------0-----------------------|

  --------------------T                             an
A|---------------------------------------------------------------------------|
E|---------0-----------------------------0-----------------------------------|
A|--------------0------------------------------0-----------------------------|
G|--1-----------------1------------1-----------------1-----------------------|

   art                                              ex-
A|---------------------------------------------------------------------------|
E|---------2-----------------------------2-----------------------------------|
A|--------------3------------------------------3-----------------------------|
G|--2-----------------2------------2-----------------2-----------------------|

    hibit                          on      mem-     ory     
A|---------------------------------------------------------------------------|
E|---------0-----------------------------0-----------------------------------|
A|--------------1------------------------------1-----------------------------|
G|--2-----------------2------------2-----------------2-----------------------|

   lane                            you---------------
A|---------------------------------------------------------------------------|
E|---------0-----------------------------0-----------------------------------|
A|--------------0------------------------------0-----------------------------|
G|--0-----------------0------------0-----------------0-----------------------|


   wore                                     thooooooose
A|---------------------------------------------------------------------------|
E|---------0-----------------------------0-----------------------------------|
A|--------------0------------------------------0-----------------------------|
G|--1-----------------1------------1-----------------1-----------------------|


   bells                                            we
A|---------------------------------------------------------------------------|
E|---------2-----------------------------2-----------------------------------|
A|--------------3------------------------------3-----------------------------|
G|--2-----------------2------------2-----------------2-----------------------|

  found              on           Champs---Elyyyyyyyyy
A|---------------------------------------------------------------------------|
E|---------0-----------------------------0-----------------------------------|
A|--------------1------------------------------1-----------------------------|
G|--2-----------------2------------2-----------------2-----------------------|

   sees                           frame    like     the
A|---------------------------------------------------------------------------|
E|---------0-----------------------------0-----------------------------------|
A|--------------0------------------------------0-----------------------------|
G|--0-----------------0------------0-----------------0-----------------------|

   gooooooooooooooooooooooooooooooooooooooooooooooolden                     
A|---------------------------------------------------------------------------|
E|---------0-----------------------------0-----------------------------------|
A|--------------0------------------------------0-----------------------------|
G|--1-----------------1------------1-----------------1-----------------------|

   master                                          for
A|---------------------------------------------------------------------------|
E|---------2-----------------------------2-----------------------------------|
A|--------------3------------------------------3-----------------------------|
G|--2-----------------2------------2-----------------2-----------------------|


[Pre-Chorus]

    gotten     all   these        years
A|---------------------------------------------------------------------------|
E|---------1-----------------------------1-----------------------------------|
A|--------------0------------------------------0-----------------------------|
G|--1-----------------1------------1-----------------1-----------------------|

   pouring         like           rain              the
A|---------------------------------------------------------------------------|
E|---------1-----------------------------1-----------------------------------|
A|--------------2------------------------------2-----------------------------|
G|--1-----------------1------------1-----------------1-----------------------|

   truth     all    ap------------pears             oh-
A|---------------------------------------------------------------------------|
E|---------1-----------------------------1-----------------------------------|
A|--------------3------------------------------3-----------------------------|
G|--1-----------------1------------1-----------------1-----------------------|

  -oh                             the   genius       of
A|---------------------------------------------------------------------------|
E|---------2-----------------------------2-----------------------------------|
A|--------------3------------------------------3-----------------------------|
G|--2-----------------2------------2-----------------2-----------------------|

   paaaaaaaaaaaaaaaaaaaaaaaaaaaaaaayyyyyyyyyyyyyyyyyyy-
A|---------------------------------------------------------------------------|
E|--0-----------0-------------------0------------0---------------------------|
A|---------------------------------------------------------------------------|
G|--0------0----------0-------------0-----0-------------0--------------------|

   -aaaaaaaaayyyyyynnne
A|--1-------------1-----------------1------------1---------------------------|
E|---------------------------------------------------------------------------|
A|---------------------------------------------------------------------------|
G|--0--------0--------0-------------0------0---------0-----------------------|


A|---------------------------------------------------------------------------|
E|--3-----------3------------------3------------3----------------------------|
A|---------------------------------------------------------------------------|
G|--3------3---------3-------------3------3----------3-----------------------|


                                  without    a      naa-
A|---------------------------------------------------------------------------|
E|--3-----------3------------------3------------3----------------------------|
A|---------------------------------------------------------------------------|
G|--3------3---------3-------------3------3----------3-----------------------|


   -aaaaaaaaaaaaaaaaaaaaaaaaaaaaaaaaaaaaaaaaaaaaaaaaa-
A|---------------------------------------------------------------------------|
E|--0-----------0-------------------0------------0---------------------------|
A|---------------------------------------------------------------------------|
G|--0------0----------0-------------0-----0-------------0--------------------|


   -aaaaaaaaaaaaaaaaaaaaaaaaaaaaaaaaaaaaaaaaaaaaaaaaa-
A|--1-------------1-----------------1------------1---------------------------|
E|---------------------------------------------------------------------------|
A|---------------------------------------------------------------------------|
G|--0--------0--------0-------------0------0---------0-----------------------|

   aaammmmmmmmmmmmmmme
A|---------------------------------------------------------------------------|
E|--3-----------3------------------3------------3----------------------------|
A|---------------------------------------------------------------------------|
G|--3------3---------3-------------3------3----------3-----------------------|


                                 pouring         like
A|---------------------------------------------------------------------------|
E|--3-----------3------------------3------------3----------------------------|
A|---------------------------------------------------------------------------|
G|--3------3---------3-------------3------3----------3-----------------------|

   rain                                                ...
A|---------------------------------------------------------------------------|
E|--1-----------1------------------1------------1----------------------------|
A|---------------------------------------------------------------------------|
G|--1------------------------------------------------------------------------|


[Chorus]

          C#         Cm7
Cause I'm on my back, on my back again
C#         Cm7                    C#     Cm7
Words we had to describe the same feeling
              C#         Cm7 
Now without a meaning
          C#         Cm7 
Cause I'm on my back, on my back again
C#         Cm7                  
Looking at a hole in the ceiling


[Chorus outro]

A|---------------------------------------------------------------------------|
E|---------1-----------------------------1-----------------------------------|
A|--------------3------------------------------3-----------------------------|
G|--1-----------------1------------1-----------------1-----------------------|


A|---------------------------------------------------------------------------|
E|---------1-----------------------------1-----------------------------------|
A|--------------2------------------------------2-----------------------------|
G|--1-----------------1------------1-----------------1-----------------------|


     oooooooooooooooooooooooooooooooooo       aaaaaaaaa
A|-----3----------3-------3-------3-------------1----------------------------|
E|-----1----------1-------1-------1-------------3----------------------------|
A|-----1----------1-------1-------1-------------1----------------------------|
G|-----1----------1-------1-------1-------------1----------------------------|


[instrumental]

C E7 A D#dim 
C E7 F Fm

[Verse 2]

C E7  A         D#dim 
I, I watched the movie of you today
C      E7
Silver screen
  F             Fm
Adapted from my thoughts on Broadway
C    E7        A
You saved the world
    D#dim 
We lived in such harmony
C           E7              F
Blockbuster sales in twelve countries

[Pre-Chorus]

Fm
Remembered all these years
G#
Falling like rain
G#6
A truth that appears
D#                 D#9 Fm 
Oh, the genius of pain, oh


[Chorus]

          C#         Cm7
Cause I'm on my back, on my back again
C#         Cm7                    C#     Cm7
Words we had to describe the same feeling
              C#         Cm7 
Now without a meaning
          C#         Cm7 
Cause I'm on my back, on my back again
C#         Cm7                  
Looking at a hole in the ceiling


A|---------------------------------------------------------------------------|
E|---------1-----------------------------1-----------------------------------|
A|--------------3------------------------------3-----------------------------|
G|--1-----------------1------------1-----------------1-----------------------|


A|---------------------------------------------------------------------------|
E|---------1-----------------------------1-----------------------------------|
A|--------------2------------------------------2-----------------------------|
G|--1-----------------1------------1-----------------1-----------------------|


     oooooooooooooooooooooooooooooooooo       aaaaaaaaa
A|-----3----------3-------3-------3-------------1----------------------------|
E|-----1----------1-------1-------1-------------3----------------------------|
A|-----1----------1-------1-------1-------------1----------------------------|
G|-----1----------1-------1-------1-------------1----------------------------|
Suggest correction
comments
print report bad tab
guest
You may want to rate the tab now too:
select rating
Wanna post a correction for this tab? Suggest correction