Oops, an error
Loading. Please wait.

Cough Syrup Tab

version 2
version 2

Whole song

Interactive

78,598 views 51 this week
7 commentsread comments
1 2 3 4 5
excellent!
x 37
add to favorites
launch autoscroll
font size
0
reset
how to read this tab
guitar tuner
Autoscroll
slow
fast
+/-
esc
set tempo
stop
Help us to improve Ultimate-Guitar.com Take our survey!
×
Author
Difficulty
intermediate
Artist: Young The Giant
Song: Cough Syrup
Tabbed by: Ricardo Ruiz
Email: Runningbass77@yahoo.com


[Intro]

E|-------------------------------------------|
B|-------------------------------------------|
G|---------7---6---6---4---4-----------4h6---|
D|-------4--------------------7------4-------|
A|-----5-----5---5---5---5---------5---------|
E|-------------------------------------------|


E|------------------------------------------|
B|------------------------------------------|
G|---------6----4---4-----------------------|
D|----------------------7---7--5---4--5-----|
A|-------4----------------------------------|
E|-----5------5---5---5---5------5---5------|


E|------------------------------------------|
B|-----------------------------5---5--------|
G|---------4---6---6---7---7----------------|
D|-------5----------------------------------|
A|------------------------------------------|
E|-----3-----3---3---3---3---3---3----------|


E|------------------------------------------|
B|---------------------5--------------------|
G|---------6---7---7------------------------|
D|------------------------------------------|
A|-------4----------------------------------|
E|-----5-----5---5---5----------------------|



************************************

| h  Hammer-on

************************************
Suggest correction
What's this?
You can suggest a correction to this tab. Community and Mods will review your correction and vote to approve or reject it.
comments
print report bad tab
7 comments total. Showing first comments.
0 reply
rickslick 207 wrote on April 6 2011, 03:53 pm

One little mistake i found. i just added a four on the fourth string near the end. sorry=D

E|------------------------------------------|
B|------------------------------------------|
G|---------7---6---6---4---4-----------4h6--|
D|-------4--------------------7------4------|
A|-----5-----5---5---5---5---------5--------|
E|------------------------------------------|

0 reply
Ssr693 12 wrote on April 16 2011, 03:31 pm

perfect. thanks man

0 reply
beanskimo 80 wrote on August 8 2011, 05:08 pm

this is a good tab, i actually just made one without realizong you had this one, i can't believe this only has 4 stars...

guest
You may want to rate the tab now too:
select rating
Please do not post tabs as comments. Select "correction" instead!