Oops, an error
Loading. Please wait.

Cough Syrup Tab

version 3
version 3

Whole song

Interactive

9,370 views 3 this week
no commentswrite comment
1 2 3 4 5
x 6
add to favorites
launch autoscroll
font size
0
reset
how to read this tab
guitar tuner
Autoscroll
slow
fast
+/-
esc
set tempo
stop
Help us to improve Ultimate-Guitar.com Take our survey!
×
Author
Difficulty
advanced
I tabbed this as advanced because of the barr chords and the finger picking

and also the rhythm is different and changes throughout this piece, i 

watched videos over and over again and listened to the song over and over 

again to make sure the notes are correct, i believe it is at least 95% 

right.

ENJOY!!




-------------------------------------------------------------------------------|
-------------------------------------------------------------------------------|
---7-----6---6---4---------4h6-----6-----4---4-------4-------------------------|
--4------------------7------------4--------------7--------5----4----5----------|
-5-----5---5---5---5-----5-----------------------------------------------------|
---------------------------------5-----5---5---5---5----5----5----5------------|

-------------------------------------------------------------------------------|
----------------3---3---5---5--------------------------------------------------|
----4---6---6---------------------6---7----7--5~-------------------------------|
--5----------------------------------------------------------------------------|
---------------------------------4---------------------------------------------|
-3----3---3---3---3---3---3-----5---5----5----5~-------------------------------|
Suggest correction
comments
print report bad tab
guest
You may want to rate the tab now too:
select rating
Wanna post a correction for this tab? Suggest correction