Oops, an error
Loading. Please wait.

Cough Syrup Tab

version 3
version 3

Whole song

Interactive

82,475 views 108 this week
1 commentread comment
1 2 3 4 5
x 15
add to favorites
launch autoscroll
font size
0
reset
how to read this tab
guitar tuner
Autoscroll
slow
fast
+/-
esc
set tempo
stop
Help us to improve Ultimate-Guitar.com Take our survey!
×
Author
-------------------------------------------------------------------------------
                            COUGH SYRUP - Young The Giant
-------------------------------------------------------------------------------

Tabbed by: Ben
Email: bentappe@gmail.com

Tuning: Standard EADGBe

In the song there are 2 guitars, but I tabbed it for only one. and without using a capo
on the Second fret. It seems to work pretty well playing it his way with one guitar

I know this isn't a 100% correct tab. So I would appreciate any corrections to make it Perfect.


i did not tab the intro all credit goes to:
http://tabs.ultimate-guitar.com/y/young_the_giant/cough_syrup_intro_ver2_tab.htm

[Intro]

e|--------------------------|--------------------------|
B|--------------------------|--------------------------|
G|--------7-----6-----6-----|--4-----4-----------4--6--|
D|-----4-----4-----4-----4--|-----4-----7-----7--------|
A|--5-----5-----5-----5-----|--5-----5-----5-----5-----|
E|--------------------------|--------------------------|


e|  |--------------------------|--------------------------|
B|  |--------------------------|--------------------------|
G|  |--------6-----4-----4-----|--------------------------|
D|  |-----5-----5-----5-----5--|--7-----7--5-----4-----5--|
A|  |--------------------------|-----5--------------------|
E|  |--5-----5-----5-----5-----|--5-----5-----5-----5-----|


e|  |--------------------------|--------------------------|
B|  |--------------------------|--3-----3-----5-----5-----|
G|  |--------4-----6-----6-----|--------------------------|
D|  |-----5-----5-----5-----5--|-----5-----5-----5-----5--|
A|  |--------------------------|--------------------------|
E|  |--3-----3-----3-----3-----|--3-----3-----3-----3-----|



e|  |--------------------------|-------------------|
B|  |--------------------------|--5----------------|
G|  |--------6-----7-----7-----|-------------------|
D|  |-----5-----5-----5-----5--|-------------------|
A|  |--------------------------|-------------------|
E|  |--5-----5-----5-----5-----|--5----------------|



Verse one: Repeat intro


[Chorus]

"If I could find a way..."       "I'd run away..."

e|----------------------------------------------------------|
B|-3---3-3--------3---3-3---------5---5-5---------5---5-5---|
G|-4---4-4--------4---4-4---------6---6-6---------6---6-6---|
D|-4---4-4--------4---4-4---------7---7-7---------7---7-7---|
A|-2---2-2--------2---2-2---------7---7-7---------7---7-7---|
E|-2---2-2--------2---2-2---------5---5-5---------5---5-5---|


Tremolo pick all notes and use fairly heavy delay

  "I I should have..."     "I'm waiting for..."
e|------------------------------------------------|
B|------------------------------------------------|
G|-12----11----14----------12----11----14---------|
D|------------------------------------------------|
A|------------------------------------------------|
E|------------------------------------------------|


e|------------------------------------------|
B|------------------------------------------|
G|--7-7-6-6-4-4------4-6--------------------|
D|--------------7--7------11-9-9-7-7-5--4-5-|
A|------------------------------------------|
E|------------------------------------------|

e|-----------------------------------------------------------------|
B|-----------------------------------------------------------------|
G|-----4-4-4-4-6-6-6-6-7-7-7-7-----------6-6-6-6-7-7-7-7-9-9-9-9---|
D|-5-5---------------------------7-7-7-7---------------------------|
A|-----------------------------------------------------------------|
E|-----------------------------------------------------------------|


[Verse 2]

from 1:23 - 1:52 i like to repeat the intro finger-picking riff,
But in the Album version he plays chords, which don't technically start until the "these 
zombies in the park" part.

chords used:

    D      G     A
e|------|-----|-----|
B|--10--|--3--|--5--|
G|--11--|--4--|--6--|
D|--12--|--5--|--7--|
A|--12--|--5--|--7--|
E|--10--|--3--|--5--|


D                                    A
Life's too short to even care at all oh
G                                          A
I'm coming up now coming up now out of the blue oh
D
These zombies in the park they're looking for my heart
A
Woah oh oh oh
G                                          A
A dark world aches for a splash of the sun oh oh




"If I could find a way..."       "I'd run away..."

e|----------------------------------------------------------|
B|-3---3-3--------3---3-3---------5---5-5---------5---5-5---|
G|-4---4-4--------4---4-4---------6---6-6---------6---6-6---|
D|-4---4-4--------4---4-4---------7---7-7---------7---7-7---|
A|-2---2-2--------2---2-2---------7---7-7---------7---7-7---|
E|-2---2-2--------2---2-2---------5---5-5---------5---5-5---|

Tremolo pick all notes and use fairly heavy delay

  "I I should have..."    "I'm waiting for..."
e|------------------------------------------------|
B|------------------------------------------------|
G|-12----11----14----------12----11----14---------|
D|------------------------------------------------|
A|------------------------------------------------|
E|------------------------------------------------|


Verse 3: Repeat Intro:


[Solo]

Moderate delay and tremolo picking on all notes except when you play the 7 & 5 on the e-string

e|----------------------------------|
B|----------------------------------|
G|-7-----9-11---6----7--4----7---6--|
D|----------------------------------|
A|----------------------------------|
E|----------------------------------|

e|-----------------7-5-5-5-----7-5-5-----5-7-7------|
B|--------------------------------------------------|
G|-7-----9-11---6-----------7---------6---------7---|
D|--------------------------------------------------|
A|--------------------------------------------------|
E|--------------------------------------------------|

e|--------------------------------------------------|
B|--------------------------------------------------|
G|-7----6--7--16---14---19--14----6-7-\12--11---14--|
D|--------------------------------------------------|
A|--------------------------------------------------|
E|--------------------------------------------------|

e|-----------------------------------------|
B|-----------------------------------------|
G|-\19----18---14----\14-16--11----\14-----|
D|-----------------------------------------|
A|-----------------------------------------|
E|-----------------------------------------|


Outro: Repeat intro.

And that's it!

Enjoy!
Please Rate
And any comments/corrections are much appreciated.


************************************

| /   slide up
| \   slide down
| h   hammer-on
| p   pull-off
| ~   vibrato
| +   harmonic
| x   Mute note
| b   Bend
| pb  Pre-bend
| br  Bend release
| pbr Pre-bend release
| brb Bend release bend

************************************
Suggest correction
comments
print report bad tab
1 comment total.
+1 reply
McAvro 225 Mar 12, 2012 02:45 PM

One minor correction. The second line in the intro had one wrong note. The note on the A string is on the fourth fret, instead of the fifth. The correction is shown here.

|--------------------------|--------------------------|
|--------------------------|--------------------------|
|--------6-----4-----4-----|--------------------------|
|-----5-----5-----5-----5--|--7-----7--5-----4-----5--|
|--------------------------|-----4--------------------|
|--5-----5-----5-----5-----|--5-----5-----5-----5-----|

Aside from that, the intro looked right, although it is easier to play with a capo, but that's your choice.

All in all, good tab.

guest
You may want to rate the tab now too:
select rating
Wanna post a correction for this tab? Suggest correction