Oops, an error
Loading. Please wait.

Cough Syrup Chords

version 4
version 4

Whole song

Interactive

103 views 3 this week
1 commentread comment
1 2 3 4 5
2 more votes to show rating
add to favorites
launch autoscroll
font size
0
reset
transpose
0
reset
simplify chords
display chords
guitar tuner
Autoscroll
slow
fast
+/-
esc
set tempo
stop
Help us to improve Ultimate-Guitar.com Take our survey!
×
Author
Difficulty
Capo
novice
2nd fret
About this tab version
Added Tab of intro, solo and bridge to chords. Fixed section headings. Was this info helpful? Yes No
From the Album “Young the Giant” - 2010

Chords   EADGBe
C        x32010
CM7      x32000
C6       x32200
F        xx3211
G        320003
Am       x02210

CAPO 2

[INTRO] 
   C       CM7     C6      CM7     G
e|------------------------------------------------------------------|
B|-----1---0---0-----------------0------0---------------------------|
G|-------0---0---0-2---2-0---0-2----------0-2---2---0---0-----------|
D|---2---------------3----------------3-------3---3---3---3--2--3---|
A|-3----------------------------------------------------------------|
E|---------------------------------3--------------------------------|

   F                                 G
e|------------------------------------------------------------------|
B|---------0---0---1---1---3---3-----------0---1---1----3~----------|
G|-----2-------------------------------0----------------------------|
D|---3---3---3---3---3---3---3---3----------------------------------|
A|------------------------------------------------------------------|
E|-1---------------------------------3-------3---3---3---~----------|


[VERSE 1] 
C          CM7           C6      CM7   G
Life’s too short to even care at all - whoa-oh
F                                             G
I’m losing my mind, losing my mind, losing control
      C                                            G
These fishes in the sea they’re staring at me - oh whoa-oh oh whoa-oh oh
F                                        G
A wet world aches for a beat of a drum - whoa-oh


[CHORUS]
           Am
If I could find a way to see this straight
    G
I’d run away
                     F      
To some fortune that I-I
       Am            G
Should have found by now
                 F         Am            G
I'm waiting for this cough syrup to come down (come down)

[GUITAR SOLO]
   C                    G                   F               G
e|----------------------------------------------------------------------------|
B|-1-1-0-0--------------0-0-------------------------0-0-1-1-----0-0--1-1-3----|
G|---------2-2--0---0-2------2-2-0-0------------2-2---------0-0---------------|
D|-----------------------------------3-2-0--3-3-------------------------------|
A|----------------------------------------------------------------------------|
E|----------------------------------------------------------------------------|

[VERSE 2]
C                                      G
Life’s too short to even care at all - whoa-oh
    F                                        G
I’m coming up now, coming up now, out of the blue - oh-oh oh-oh
      C                                                     G
These zombies in the park they’re looking for my heart - oh whoa-oh oh whoa-oh oh
  F                                          G
A dark world aches for a splash of the sun - whoa-oh


[CHORUS]
Am
If I could find a way to see this straight
    G
I’d run away
                     F          Am            G
To some fortune that I-I should have found by now
                                                 Am  
And so I run right to the things they said could restore me
                 G
Restore life the way it should be
                     F     Am            G
I’m waiting for this cough syrup to come down


[VERSE 3]
C                                      G
Life’s too short to even care at all – whoa-oh
F                                             G
I’m losing my mind, losing my mind, losing control


[BRIDGE] - 24 bars
   C       G       F     G       C       G       F      G   C      G      F     G
e|----------------------------|--------------3-0----------|--------5-3----8-----10--|
B|-1---3-5-0---1-3-----0-1-0--|--1---3-5-0-----------1-0--|-1-3-5-------------------|
G|-----------------2----------|------------------2--------|-------------------------|
D|----------------------------|---------------------------|-------------------------|
A|----------------------------|---------------------------|-------------------------|
E|----------------------------|---------------------------|-------------------------|


[CHORUS]
           Am
If I could find a way to see this straight
    G
I’d run away
                     F               Am       G
To some fortune that I-I should have found by now
                                             Am
So I run right to the things they said could restore me
                 G
Restore life the way it should be
                     F     Am         G
I’m waiting for this cough syrup to come down


[OUTRO]
C        CM7            C6      CM7   G
One more spoon of cough syrup   now - whoa-ohh
F                                        G
One more spoon of cough syrup now - whoa-oh
Suggest correction
Give kudos to tab author, rate the tab!
1 2 3 4 5
comments
print report bad tab
1 comment total.
0 reply
rautakallio 740 Nov 27, 2016 07:10 PM

Note: C6 chord is actually CM7Add6 but UG doesn't highlight that chord. Just leave the B string open.

guest
You may want to rate the tab now too:
select rating
Wanna post a correction for this tab? Suggest correction