Oops, an error
Loading. Please wait.

Mr Know-It-All Tab

199 views 57 this week
no commentswrite comment
1 2 3 4 5
x 3
add to favorites
launch autoscroll
font size
0
reset
how to read this tab
guitar tuner
Autoscroll
slow
fast
+/-
esc
set tempo
stop
Help us to improve Ultimate-Guitar.com Take our survey!
×
Author
Difficulty
intermediate
About this tab version
Added basically all the lead guitar lines. Was this info helpful? Yes No
[Intro]

e|---------------------------------------------------------------------------|
B|---------------------------------------------------------------------------|
G|---9--6-----------------------9--6-----------------------------------------|
D|---------7--5-----------------------7--5-----------------------------------|
A|---------------------------------------------------------------------------|
E|---------------------------------------------------------------------------|

e|---------------------------------------------------------------------------|
B|---------------------------------------------------------------------------|
G|---9-11-11b14r11-9-7----------9--6-----------------------------------------|
D|------------------------------------7--5--4--4--7--5--4--------------------|
A|---------------------------------------------------------------------------|
E|---------------------------------------------------------------------------|


[Verse]
   Jack from school             He listened to Bowie people thought he was cool
e|---------------------------------------------------------------------------|
B|---------------------------------------------------------------------------|
G|----------------9--6--------------------------9-11-11b14r11-9-7------------|
D|----------------------7--5-------------------------------------------------|
A|---------------------------------------------------------------------------|
E|---------------------------------------------------------------------------|
   He used to live for the thrill skating around in the hollywood hills
e|---------------------------------------------------------------------------|
B|---------------------------------------------------------------------------|
G|----------------9--6-------------------------------------------------------|
D|----------------------7--5--4--4--7--5--4----------------------------------|
A|---------------------------------------------------------------------------|
E|---------------------------------------------------------------------------|
But no one knows He's talking it up      That it's all for show
e|---------------------------------------------------------------------------|
B|---------------------------------------------------------------------------|
G|----------------9--6--------------------------9-11-11b14r11-9-7------------|
D|----------------------7--5-------------------------------------------------|
A|---------------------------------------------------------------------------|
E|---------------------------------------------------------------------------|
       He's boring as fuck
e|---------------------------------------------------------------------------|
B|---------------------------------------------------------------------------|
G|----------------9--6-------------------------------------------------------|
D|----------------------7--5--4----------------------------------------------|
A|---------------------------------------------------------------------------|
E|---------------------------------------------------------------------------|

[Chorus] (These chords play in the background in all choruses and during the guitar solos)
   It's such a tragedy             When people hardly speak
e|---------------------10---12--10-------------------------12---14--12-------|
B|---------------------10---10--10-------------------------12---12--12-------|
G|---------------------11---11--11-------------------------12---12--12-------|
D|---------------------------------------------------------------------------|
A|---------------------------------------------------------------------------|
E|---------------------------------------------------------------------------|
        Try to live up to the person    You pretend to be
e|---------------------10---12--10-------------------------12---14--12-------|
B|---------------------10---10--10-------------------------12---12--12-------|
G|---------------------11---11--11-------------------------12---12--12-------|
D|---------------------------------------------------------------------------|
A|---------------------------------------------------------------------------|
E|---------------------------------------------------------------------------|
   
   You're mister know it all
e|---------------------------------------------------------------------------|
B|---------------------------------------------------------------------------|
G|--------7--9--11--14---7-------7--9--11--14--9--7--------------------------|
D|---------------------------------------------------9--7----------=---------|
A|---------------------------------------------------------------------------|
E|---------------------------------------------------------------------------|

e|---------------------------------------------------------------------------|
B|---------------------------------------------------------------------------|
G|--------7--9--11--14--14b16r14--11--9b11r9--7--7h9p7----------------=------|
D|------------------------------------------------------9------------=-------|
A|---------------------------------------------------------------------------|
E|---------------------------------------------------------------------------|

[Verse 2]
    Jill liked art She listened to Mozart people thought she was smart
e|---------------------------------------------------------------------------|
B|---------------------------------------------------------------------------|
G|---------------------9--6--------------------------9-11-11b14r11-9-7-------|
D|---------------------------7--5--------------------------------------------|
A|---------------------------------------------------------------------------|
E|---------------------------------------------------------------------------|

She used to quote Hemingway Trippin' on acid in the Palisades
e|---------------------------------------------------------------------------|
B|---------------------------------------------------------------------------|
G|----------------9--6-------------------------------------------------------|
D|----------------------7--5--4--4--5--7--5--4-------------------------------|
A|---------------------------------------------------------------------------|
E|---------------------------------------------------------------------------|

                             But no one knows that it's all for show
e|---------------------------------------------------------------------------|
B|---------------------------------------------------------------------------|
G|----------------------------------------------9-11-11b14r11-9-7------------|
D|---------------------------------------------------------------------------|
A|---------------------------------------------------------------------------|
E|---------------------------------------------------------------------------|

[Chorus]
   It's such a tragedy             When people hardly speak
e|---------------------10---12--10-------------------------12---14--12-------|
B|---------------------10---10--10-------------------------12---12--12-------|
G|---------------------11---11--11-------------------------12---12--12-------|
D|---------------------------------------------------------------------------|
A|---------------------------------------------------------------------------|
E|---------------------------------------------------------------------------|
        Try to live up to the person    You pretend to be
e|---------------------10---12--10-------------------------12---14--12-------|
B|---------------------10---10--10-------------------------12---12--12-------|
G|---------------------11---11--11-------------------------12---12--12-------|
D|---------------------------------------------------------------------------|
A|---------------------------------------------------------------------------|
E|---------------------------------------------------------------------------|

[Bridge]
  You must have known I tried to change would love to say
e|---------------------------------------------------------------------------|
B|---------------------------------------------------------------------------|
G|---------------------------------------------------------------------------|
D|---------------------------------------------------------------------------|
A|--------------------9-9-9-9-9-9-9-9-9-9-9-9-9-9-9-9------------------------|
E|---------------------------------------------------------------------------|
    Hello                Please don't hang up
e|------------------------------------------5--------------------------------|
B|---------------------------------------------------------------------------|
G|--9-9-9-9-9-9-9-9----------------------6-----------------------------------|
D|---------------------------------------------------------------------------|
A|---------------------------------------------------------------------------|
E|------------------------------------5--------------------------------------|

[Outro] (mess around with this a couple times)
   You're mister know it all
e|---------------------------------------------------------------------------|
B|---------------------------------------------------------------------------|
G|--------7--9--11--14---7-------7--9--11--14--14b16--11--14--16-------------|
D|---------------------------------------------------------------------------|
A|---------------------------------------------------------------------------|
E|---------------------------------------------------------------------------|

e|---------------------------------------------------------------------------|
B|---------------------------------------------------------------------------|
G|--------7--9--11--14--14b16r14--11-------------11--9h11p9--7--9p7----------|
D|-------------------------------------------------------------------9-------|
A|---------------------------------------------------------------------------|
E|---------------------------------------------------------------------------|
Finally end on
   I'm mister know it
e|---------------------------------------------------------------------------|
B|---------------------------------------------------------------------------|
G|--------------------9b11---------------------------------------------------|
D|---------------------------------------------------------------------------|
A|---------------------------------------------------------------------------|
E|---------------------------------------------------------------------------|


************************************

| h   Hammer-on
| p   Pull-off
| r   Release
| b   Bend
| br  Bend release

************************************
Suggest correction
Give kudos to tab author, rate the tab!
1 2 3 4 5
comments
print report bad tab
guest
You may want to rate the tab now too:
select rating
Wanna post a correction for this tab? Suggest correction