Oops, an error
Loading. Please wait.

My Body Tab

14,067 views 78 this week
no commentswrite comment
1 2 3 4 5
accurate
x 9
add to favorites
launch autoscroll
font size
0
reset
how to read this tab
guitar tuner
Autoscroll
slow
fast
+/-
esc
set tempo
stop
Help us to improve Ultimate-Guitar.com Take our survey!
×
Difficulty
intermediate
-------------------------------------------------------------------------------
                             MY BODY - Young The Giant
-------------------------------------------------------------------------------
Tabbed by:Riley Mudgett-McGeoch
E-mail:Mudgett06@gmail.com

Tuning:Standard

The slide parts in the intro and throughout the guitar 2 parts are much easier with a finger slide

        INTRO
e|---------------------------------------------------------------------------|
B|---------------------------------------------------------------------------|
G|-10-10-10-10-10-10-10-10-10-10-10-10-10-10-10-10-10-10b11-11-11-11-11-11b12|
D|---------------------------------------------------------------------------|
A|---------------------------------------------------------------------------|
E|---------------------------------------------------------------------------|

 |----------------------------------------------------------17---------------|
 |-------------------------------------------------------17---17-------------|
 |-12-12-12-12-12-12b15-15-15-15b17-17-17-17-17-17b19-19-19-----19-----------|
 |---------------------------------------------------------------------------|
 |---------------------------------------------------------------------------|
 |---------------------------------------------------------------------------|
       
             CHORUS
   Guitar 1
   v  ^  v  ^  v  ^   ^  v  ^  v  ^   ^   ^
 |-13-13-17-13-13-13--13-17-13-13-13--13--13~--------------|
 |-13-13-13-13-15-13--13-13-13-15-13--13--13~--------------|
 |-14-14-14-14-14-14--14-14-14-14-14--14--14~ties-to-repeat|3x
 |-15-15-15-15-15-15--15-15-15-15-15--15--14~--------------|
 |---------------------------------------------------------|
 |---------------------------------------------------------|

 |-13-13-17-13-13-13--13-171717171717171717171717-|
 |-13-13-13-13-15-13--13-131313131313131313131313-|
 |-14-14-14-14-14-14--14-141414141414141414141414-|
 |-15-15-15-15-15-15--15-151515151515151515151515-|
 |------------------------------------------------|
 |------------------------------------------------|
      Guitar 2
 |---------------------------------------------------------------------------|
 |-101010101010-1010101010-10-10~1010101010-1010101010/13-13\3-3-3-3-3--3-3-3|
 |-101010101010-1010101010-10-10~1010101010-1010101010-14-14-3-3-3-3-3--3-3-3|
 |-101010101010-1010101010-10-10~1010101010-1010101010-x--x--3-3-3-3-3--3-3-3|
 |-8-8-8-8-8-8--8-8-8-8-8--8--8~~8-8-8-8-8--8-8-8-8-8-/12-12\1-1-1-1-1--1-1-1|
 |---------------------------------------------------------------------------|

 |------------------------------------------------19----|
 |-3-3--3--3-3-3-3-3-3--3-3-3-3-3-15151515\101010-19b21-|
 |-3-3--3--3-3-3-3-3-3--3-3-3-3-3-15151515\101010-------|
 |-3-3--3--3-3-3-3-3-3--3-3-3-3-3-15151515\101010-------|
 |-1-1--1--1-1-1-1-1-1--1-1-1-1-1-13131313\8-8-8--------|
 |------------------------------------------------------|

        VERSE 1
  Guitar 1
  0:36 and 0:44
 |-17-17-17---------------|
 |-13-13-13---------------|
 |-14-14-14---------------|
 |------------------------|
 |------------------------|
 |------------------------|
  Guitar 2 
  0:36
 |-------------------------------------|
 |-15~~~--10-10-10-10\-----------------|
 |-15~~~--10-10-10-10\-----------------|
 |-12~~~-------------------------------|
 |-----nice-flanger-effect-------------|
 |-------------------------------------|

 |--------------------------------------------------------------------------|
 |--------------------------------------------------------------------------|
 |--------------------------------------------------------------------------|
 |-333333333333333333333333333333333333333333333333/888888888888888888888888|
 |--------------------------------------------------------------------------|
 |--------------------------------------------------------------------------|
 
 |------------------------measure long slide--|
 |15151515151515151515151515\-----------------|   
 |15151515151515151515151515\-----------------|
 |15151515151515151515151515\-----------------|
 |13131313131313131313131313\-----------------|
 |--------------------------------------------|

        VERSE 2
   Guitar 1 (2x)
 |-----------------------------------------------------------------------|
 |-----------------------------------------------------------------------| 
 |-----------------------------------------------------------------------| 
 |-----------------------------------------------------------------------|   
 |------------------------------------15-17-15-17-15-17-15-17-15-17-15-17|
 |-13-15-13-13-13-13-13-13-13-13h15/17-----------------------------------| 

 |------------------------------------------------------------|
 |------------------------------------------------------------|
 |---14--14--14--14--14--14------------------14-17-14-17-14-17|
 |-15--15--15--15--15--15-------------------------------------|
 |--------------------------15-17-15-17-15-17-----------------|
 |------------------------------------------------------------|

 |------------------------|-----------------------------------|       
 |------------------------|-----------------------------------|
 |--14--14--14--14--17--14|x3---14--17--14----14--17--14------|   
 |----15--15------15--15--|-------15--15--15----15--15--------|  
 |13----------13----------|---13------------13----------------| 
 |------------------------|-----------------------------------|

   Guitar 2
  1:36
 |--------------------------------------------------|
 |--------------------------------------------------|
 |--------------------fade-out----------------------|
 |-3/888888888888888888888888-----------------------|
 |--------------------------------------------------|
 |--------------------------------------------------|
  1:43
 |--------------------------------------------------------------------------| 
 |--------------------------------------------------------------------------|
 |--------------------------------------------------------------------------|
 |-333333333333333333333333333333333333333333333333/888888888888888888888888|
 |--------------------------------------------------------------------------|
 |--------------------------------------------------------------------------|
 
 |-------------------------measure long slide--|
 |-15151515151515151515151515\-----------------|
 |-15151515151515151515151515\-----------------|
 |-15151515151515151515151515\-----------------|
 |-13131313131313131313131313\-----------------|
 |---------------------------------------------|

        BRIDGE

 |-1-1/--------------|---1-1/-----|------------|--------------------------| 
 |-1-1/101010101010\-|---1-1/10-9-|8-8-xxxxxxx-|--------------------------|
 |-2-2/101010101010\-|x3-2-2/10-9-|8-8-xxxxxxx-|x3-15151515151515151515\--|
 |-3-3/101010101010\-|---3-3/10-9-|8-8-xxxxxxx-|---15151515151515151515\--|
 |-3-3/8-8-8-8-8-8-\-|---3-3/8--7-|6-6-xxxxxxx-|---13131313131313131313\--|
 |-1-1/--------------|---1-1/-----|------------|--------------------------|

 |-1-1/--------------|   |------------------|--------------------------| 
 |-1-1/101010101010\-|   |-3-3/151515151515-|--------------------------|
 |-2-2/101010101010\-|x4 |-3-3/151515151515-|x3-15~~\------------------|
 |-3-3/101010101010\-|   |-3-3/151515151515-|---15~~\--little-delay----|
 |-3-3/8-8-8-8-8-8-\-|   |-1-1/131313131313-|---13~~\------------------|
 |-1-1/--------------|   |------------------|--------------------------|

  3:05-3:23
  PM..................................................
 |-----------------------------------------------------|--------|
 |-----------------------------------------------------|-15~~~~~|
 |-----------------------------------------------------|-15~~~~~|
 |-1010101010101010101010-(he might switch to 15 here)-|-15~~~~~|
 |-----------------------------------------------------|-13~~~~~|
 |-----------------------------------------------------|--------|

        OUTRO
 Guitar 1
|-1-1/--------------|   |-1\-| 
|-1-1/101010101010\-|   |-1\-|
|-2-2/101010101010\-|x3 |-2\-|
|-3-3/101010101010\-|   |-3\-|
|-3-3/8-8-8-8-8-8-\-|   |-3\-|
|-1-1/--------------|   |-1\-|

 Guitar 2
|-1-1/-------|
|-1-1/xxxxxx-|
|-2-2/xxxxxx-|x3
|-3-3/xxxxxx-|
|-3-3/xxxxxx-|
|-1-1/-------|


        SONG ORDER
        CHORUS
        VERSE 1
        CHORUS x2
        VERSE 2
        CHORUS x2
        BRIDGE
        CHORUS x2
        OUTRO
Suggest correction
What's this?
You can suggest a correction to this tab. Community and Mods will review your correction and vote to approve or reject it.
comments
print report bad tab
guest
You may want to rate the tab now too:
select rating
Please do not post tabs as comments. Select "correction" instead!