Oops, an error
Loading. Please wait.

Silvertongue Bass Tab

415 views 33 this week
no commentswrite comment
1 2 3 4 5
3 more votes to show rating
add to favorites
launch autoscroll
font size
0
reset
guitar tuner
Autoscroll
slow
fast
+/-
esc
set tempo
stop
Help us to improve Ultimate-Guitar.com Take our survey!
×
Author
Difficulty
intermediate
About this tab version
First version of the song. Mostly accurate to the original song. Was this info helpful? Yes No
Tabbed by: Asa Wentworth
Email: stroodleman8451@yahoo.com

Song: Silvertongue
Artist: Young the Giant
Album: Home of the Strange
Tuning: Standard

[Intro]

0:04
g|-----------------------------------------------------------| 
d|-----3s--3------------------------3-------3----------------|
a|---5-------3-5--------------5-3-5h---------5-5-------------|
e|----------------3-3-1-1h3------------3-3-------------------|
(s) is slapped

[Verse]

0:14
"Tryin' to think..."
g|-----------------------------------------------------------| 
d|--------------------------------------3--------------------|
a|---5-3-5------------3h5--5-3-5---------5-5-----------------|
e|----------3-3-1-1h3--------------3-3-----------------------|

0:24
"Taste of mezcal..."
g|-----------------------------------------------------------| 
d|-----------------------------------------------------------|
a|---5-3-5---------------5-3-5--------1/---------------------|
e|----------3-3-1-1h3-----------3-3--------------------------|


[First Chorus]

0:33
"Oh, girl, I've got that..."
g|------------------------------------------------------------------------------|
d|----------7h8-10-7--5-5-5---7h8-10-7--12-12-12---12-12-12--12--10-10-10--10---| 
a|---8-8-8----------------------------------------------------------------------|
e|------------------------------------------------------------------------------|

"Drives you into..."
g|-------------------------------------------------------------------------------| 
d|--------------7-8--5-5-5---7h8-10-7--12-12-12---12-12-12--12--10-10-10--10-----| 
a|---8-8-8--5h8------------------------------------------------------------------|
e|-------------------------------------------------------------------------------|

"...oh, oh, oh oh..."
g|--------------------------------------------------------------------------------------| 
d|----------------------------------------------------------------------------10-12-----|
a|---1-1--1-1-1---------------8-8-8---7-7-7---5-5--5-5-5---1-1--1-1-1--1/-5-8-----------|
e|----------------3-3--3-3-3--------5-------5-------------------------------------------|

1:07
g|--------------------------------------------------------------| 
d|------------------------3--------------3----------------------|
a|---3-5--------------5-3--5--------------5---------------------|
e|--------3-3-1-1h3-----------3-3-1-1h3-------------------------|

[Verse]

1:19
"...ceiling..."
g|---------------------------------------------------------------------------------------| 
d|------------------------------------------3s----3s---3s--------------------------------|
a|--------------3h5---5-3---5------------------------------5-3-5-------------5---1-1/----|
d|---3-3-1-1h3-------------------3-5-3---x-----x----x-------------3-3-1-1h3--------------|
listen for the timing

[Second Chorus]

1:36
"Oh, girl, I've got that..."
g|------------------------------------------------------------------------------|
d|----------7h8-10-7--5-5-5---7h8-10-7--12-12-12---12-12-12--12--10-10-10--10---| 
a|---8-8-8----------------------------------------------------------------------|
e|------------------------------------------------------------------------------|

"Drives you into..."
g|-------------------------------------------------------------------------------| 
d|--------------7-8--5-5-5---7h8-10-7--12-12-12---12-12-12--12--10-10-10--10-----| 
a|---8-8-8--5h8------------------------------------------------------------------|
e|-------------------------------------------------------------------------------|

"...oh, oh, oh oh..."
g|------------------------------------------------------------------------------------------| 
d|----------------------------------------------------------------------------5---10-12-----|
a|---1-1--1-1-1---------------8-8-8---7-7-7---5-5--5-5-5---1-1--1-1-1--1/-5-8---8-----------|
e|----------------3-3--3--33--------5-------5-----------------------------------------------|

[Bridge]

2:09
g|---------------------------------------------------------------------------------------------| 
d|-------------------------------------------------------------------5---5-7-12-10-12----------|
a|-----------1-1-1-5--------------------1-1-1-1------------------5-8---8-----------------------|
e|---3-3-3-5---------5-5-1--1-1--1--3-5---------3-3-3-3-1-1-1-1--------------------------------|

[Final Chorus]

2:29
"Oh, girl, I've got that..."
g|------------------------------------------------------------------------------|
d|----------7h8-10-7--5-5-5---7h8-10-7--12-12-12---12-12-12--12--10-10-10--10---| 
a|---8-8-8----------------------------------------------------------------------|
e|------------------------------------------------------------------------------|

"Drives you into..."
g|-------------------------------------------------------------------------------| 
d|--------------7-8--5-5-5---7h8-10-7--12-12-12---12-12-12--12--10-10-10--10-----| 
a|---8-8-8--5h8------------------------------------------------------------------|
e|-------------------------------------------------------------------------------|


"...oh, oh, oh oh..."
g|----------------------------------------------------------------------------------| 
d|-------------------------------------------------5---7----------------------------|
a|---1-1--1-1-1-----------------------8-8-8---7-7---7---5--5-5-5--1-1--1-1-1--1/----|
e|----------------1-3-1-0-3-3--3--3-3--------5--------------------------------------|

g|--------------------14-19-17-19-------|
d|------5---5-7-12-10-------------------|
a|--5-8---8-----------------------------|
e|--------------------------------------|
the slide leads into this. it's really quick


[Outro]

3:02
g|---------------------------------------| 
d|-----------------------3---------------|
a|---3-5-------------5-3--5--------------|
e|--------3-3-1-1h3----------3-3---------|

Rate and comment!
Suggest correction
Give kudos to tab author, rate the tab!
1 2 3 4 5
comments
print report bad tab
guest
You may want to rate the tab now too:
select rating
Wanna post a correction for this tab? Suggest correction