Oops, an error
Loading. Please wait.

Something To Believe In Bass Tab

394 views 39 this week
no commentswrite comment
1 2 3 4 5
1 last vote to show rating
add to favorites
launch autoscroll
font size
0
reset
guitar tuner
Autoscroll
slow
fast
+/-
esc
set tempo
stop
Help us to improve Ultimate-Guitar.com Take our survey!
×
Author
Artist : Young The Giant
Album : Home of the Strange
Track : Something To Believe In


Tuning : Standart (E,A,D,G)

[Intro]
0:10
Use some kind of distortion with an octaver (down)
G|------------4-6-|----------------|----------------|----------------|----------------|
D|----------------|4-4-4-6-6-6-6---|----------------|------4-4-4-4---|----------------|
A|----------------|--------------6-|6-6-6-6-6-6-6-6-|4-4-4---------6-|6-6-6-6-6-6-6-6-|
E|----------------|----------------|----------------|----------------|----------------|


[Verse]

G|----------------|----------------|----------------|----------------|-------------/8-|
D|--4-4-6-6-6-6---|----------------|------4-4-4-4---|----------------|4-4-4-6-6-6-6---|
A|--------------6-|6-6-6-6-6-6-6-6-|4-4-4---------6-|6-6-6-6-6-6-6-6-|----------------|
E|----------------|----------------|----------------|----------------|----------------|

G|8-8-8-8-8-8-8-8-|----------------|----------------|
D|----------------|------4-4-4-4---|----------------|
A|----------------|4-4-4---------6-|6-6-6-6-6-6-6-6-|
E|----------------|----------------|----------------|


[Pre-Chorus] (no more distortion)

G|-------------/8-|8-8-8-8-8-8-8-8-|----------------|----------------|----------------|
D|--4-4-6-6-6-6---|----------------|------4-4-4-4---|----------------|----------------|
A|----------------|----------------|4-4-4---------6-|6-6-6-6-6-6-6-6-|4-------------6-|
E|----------------|----------------|----------------|----------------|--6-6-4-4-4-4---|

G|----------------|----------------|----------------|
D|----------------|------4-4-4-4---|----------------|
A|6-6-6-6-6-6-6-6-|4-4-4---------6-|6-------------4-|
E|----------------|----------------|----------4-6---|


[Chorus]

G|----------------|----------------|----------------|----------------|----------------|
D|----------------|----------------|----------------|----------------|----------------|
A|6-6-6-4-4-4-----|--------------4-|6-6-6-4-4-4-----|--------------4-|6-6-6-4-4-4-----|
E|----------------|2-2-2-2-2-2-6---|----------------|2-2-2-4-4-4-6---|----------------|

G|----------------|----------------|----------------|----------------|----------------|
D|4-4-4-8---------|----------------|----------------|----------------|4-4-4-4-4-4-----|
A|----------------|----------------|----------------|6-6-6-4-4-4-----|--------------4-|
E|--------6-6-4-4-|2-2-2-2-2-2-2-2-|4-4-4-4-4-4-4-4-|----------------|------------6---|

G|----------------|----------------|
D|----------------|4-4-4-6-6-6-----|
A|6-6-6-4-4-4-----|----------------|
E|----------------|----------------|



[Verse] (distortion)

G|----------------|----------------|----------------|----------------|
D|--4-4-6-6-6-6---|----------------|------4-4-4-4---|----------------|
A|--------------6-|6-6-6-6-6-6-6-6-|4-4-4---------6-|6-6-6-6-6-6-6-6-|
E|----------------|----------------|----------------|----------------|

[Pre-Chorus] (no more distortion)

G|-------------/8-|8-8-8-8-8-8-8-8-|----------------|----------------|----------------|
D|--4-4-6-6-6-6---|----------------|------4-4-4-4---|----------------|----------------|
A|----------------|----------------|4-4-4---------6-|6-6-6-6-6-6-6-6-|4-------------6-|
E|----------------|----------------|----------------|----------------|--6-6-4-4-4-4---|

G|----------------|----------------|----------------|
D|----------------|------4-4-4-4---|----------------|
A|6-6-6-6-6-6-6-6-|4-4-4---------6-|6-------------4-|
E|----------------|----------------|----------4-6---|


[Chorus]

G|----------------|----------------|----------------|----------------|----------------|
D|----------------|----------------|----------------|----------------|----------------|
A|6-6-6-4-4-4-----|--------------4-|6-6-6-4-4-4-----|--------------4-|6-6-6-4-4-4-----|
E|----------------|2-2-2-2-2-2-6---|----------------|2-2-2-4-4-4-6---|----------------|

G|----------------|----------------|----------------|----------------|----------------|
D|4-4-4-----------|----------------|----------------|----------------|----------------|
A|----------------|----------------|----------------|----------------|----------------|
E|------6-6-6-4-4-|2-2-2-2-2-2-2-2-|4-4-4-4-4-4-4-4-|7---------------|4---------------|

G|----------------|----------------|----------------|----------------|----------------|
D|----------------|----------------|----------------|----------------|----------------|
A|----------------|6---4-----------|----------------|----------------|----------------|
E|2-------6-------|--------7---6---|7---------------|4---------------|2---------------|

G|----------------|
D|----------------|
A|----------------|
E|6---------------|


[Interlude] : no bass


[Build up]

G|----------------|----------------|----------------|
D|----------------|----------------|----------------|
A|6-6-6-4-4-4-----|--------------4-|6-6-6-4-4-4-----|
E|----------------|2-2-2-2-2-2-6---|----------------|


[Chorus]

G|----------------|----------------|----------------|----------------|----------------|
D|----------------|4-4-4-4-4-4-----|----------------|----------------|----------------|
A|6-6-6-4-4-4-----|--------------4-|6-6-6-4-4-4-----|--------------4-|6-6-6-4-4-4-----|
E|----------------|------------6---|----------------|2-2-2-4-4-4-6---|----------------|

G|----------------|----------------|----------------|----------------|----------------|
D|4-4-4-----------|----------------|------4/6---4---|----------------|4-4-4-4-4-4-----|
A|----------------|----------------|----------------|6-6-6-4-4-4-----|--------------4-|
E|------6-6-6-4-4-|2-2-2-2-2-2-2-2-|4-4-4-----------|----------------|------------6---|

G|----------------|----------------|----------------||
D|----------------|----------------|----------------||
A|6-6-6-4-4-4-----|--------------4-|6---------------||
E|----------------|2-2-2-4-4-4-6---|----------------||


*******************

| / Slide up

*******************
Suggest correction
Give kudos to tab author, rate the tab!
1 2 3 4 5
comments
print report bad tab
guest
You may want to rate the tab now too:
select rating
Wanna post a correction for this tab? Suggest correction