Oops, an error
Loading. Please wait.

Something To Believe In Bass

1,321 views 12 this week
no commentswrite comment
1 2 3 4 5
x 3
add to favorites
×
Save as Personal and add changes to this tab that will be seen only by you. Learn more ›
launch autoscroll
font size
0
reset
guitar tuner
Autoscroll
slow
fast
+/-
esc
set tempo
stop
Author
Difficulty
novice
Artist : Young The Giant
Album : Home of the Strange
Song : Something To Believe In


[Intro] (0:10)
Use some kind of distortion with an octaver (down)
G|------------4-6-|----------------|----------------|----------------|----------------|
D|----------------|4-4-4-6-6-6-6---|----------------|------4-4-4-4---|----------------|
A|----------------|--------------6-|6-6-6-6-6-6-6-6-|4-4-4---------6-|6-6-6-6-6-6-6-6-|
E|----------------|----------------|----------------|----------------|----------------|


[Verse]

G|----------------|----------------|----------------|----------------|-------------/8-|
D|--4-4-6-6-6-6---|----------------|------4-4-4-4---|----------------|4-4-4-6-6-6-6---|
A|--------------6-|6-6-6-6-6-6-6-6-|4-4-4---------6-|6-6-6-6-6-6-6-6-|----------------|
E|----------------|----------------|----------------|----------------|----------------|

G|8-8-8-8-8-8-8-8\|----------------|----------------|
D|----------------|------4-4-4-4---|----------------|
A|----------------|4-4-4---------6-|6-6-6-6-6-6-6-6-|
E|----------------|----------------|----------------|


[Pre-Chorus] 

G|-------------/8-|8-8-8-8-8-8-8-8\|----------------|----------------|----------------|
D|--4-4-6-6-6-6---|----------------|------4-4-4-4---|----------------|--4-4-6-6-6-6---|
A|----------------|----------------|4-4-4---------6-|6-6-6-6-------6-|4-------------6-|
E|----------------|----------------|----------------|--------2-4-6---|----------------|
                                   
G|----------------|----------------|----------------|
D|----------------|------4-4-4-4---|----------------|
A|6-6-6-6-6-6-6-6-|4-4-4---------6-|6-------------4-|
E|----------------|----------------|------------6---|
                                      (no more distortion)

[Chorus] 

G|----------------|----------------|----------------|----------------|----------------|
D|----------------|4-4-x-4-4-4-----|----------------|----------------|----------------|
A|6-6-x-4-4-4-----|--------------4-|6-6-x-4-4-4-----|----------------|6-6-x-4-4-4-----|
E|----------------|------------6---|----------------|2-2-x-4-4-4-4-6-|----------------|

G|------3---------|----------------|----------------|----------------|----------------|
D|4-4-x-----------|----------------|----------------|----------------|4-4-x-4-4-4-----|
A|----------------|----------------|----------------|6-6-x-4-4-4-----|--------------4-|
E|--------6-4-4-2-|2-2-2-2-2-2-2-4-|4-4-4-4-4-4-4-4-|----------------|------------6---|

G|----------------|----------------|
D|----------------|4-4-x-6-6-6-----|
A|6-6-x-4-4-4-----|----------------|
E|----------------|----------------|



[Verse] (distortion)

G|----------------|----------------|----------------|----------------|
D|4-4-4-6-6-6-6---|----------------|------4-4-4-4---|----------------|
A|--------------6-|6-6-6-6-6-6-6-6-|4-4-4---------6-|6-6-6-6-6-6-6-6-|
E|----------------|----------------|----------------|----------------|

[Pre-Chorus]

G|-------------/8-|8-8-8-8-8-8-8-8\|----------------|----------------|----------------|
D|--4-4-6-6-6-6---|----------------|------4-4-4-4---|----------------|--4-4-6-6-6-6---|
A|----------------|----------------|4-4-4---------6-|6-6-6-6-------6-|4-------------6-|
E|----------------|----------------|----------------|--------2-4-6---|----------------|
                                   
G|----------------|----------------|----------------|
D|----------------|------4-4-4-4---|----------------|
A|6-6-6-6-6-6-6-6-|4-4-4---------6-|6-------------4-|
E|----------------|----------------|----------4-6---|
                                      (no more distortion)

[Chorus]

G|----------------|----------------|----------------|----------------|----------------|
D|----------------|4-4-x-4-4-4-----|----------------|----------------|----------------|
A|6-6-x-4-4-4-----|--------------4-|6-6-x-4-4-4-----|----------------|6-6-x-4-4-4-----|
E|----------------|------------6---|----------------|2-2-x-4-4-4-2-4-|----------------|

G|----------------|----------------|----------------|----------------|----------------|
D|4-4-x-----------|----------------|------4-6--46---|----------------|----------------|
A|----------------|----------------|----------------|----------------|----------------|
E|------6-6-4-4-2-|2-2-2-2-2-2-2-4-|4-4-4-----------|7---------------|4---------------|

G|----------------|----------------|----------------|----------------|----------------|
D|----------------|----------------|----------------|----------------|----------------|
A|----------------|6---4-----------|----------------|----------------|----------------|
E|2-------6-------|--------7---6---|7---------------|4---------------|2---------------|

G|----------------|
D|----------------|
A|----------------|
E|6---------------|


[Interlude] : no bass


[Build up] (2:58)

G|----------------|----------------|----------------|----------------|
D|----------------|4-4-x-4-4-4-----|----------------|----------------|
A|6-6-x-4-4-4-----|--------------4-|6-6-x-4-4-4-----|----------------|
E|----------------|------------6---|----------------|----------------|


[Chorus]

G|----------------|----------------|----------------|----------------|----------------|
D|----------------|4-4-x-4-4-4-----|----------------|----------------|----------------|
A|6-6-x-4-4-4-----|--------------4-|6-6-x-4-4-4-----|----------------|6-6-x-4-4-4-----|
E|----------------|------------6---|----------------|2-2-x-4-4-4-4-6-|----------------|

G|----------------|----------------|----------------|----------------|----------------|
D|4-4-x-----------|----------------|------4/6--46---|----------------|4-4-x-4-4-4-----|
A|----------------|----------------|----------------|6-6-x-4-4-4-----|--------------4-|
E|------6-6-4-4-2-|2-2-2-2-2-2-2-4-|4-4-4-----------|----------------|------------6---|

G|----------------|----------------|----------------||
D|----------------|------4-6--46---|----------------||
A|6-6-x-4-4-4-----|----------------|6---------------||
E|----------------|2-2-2-----------|----------------||


*******************

| x  Dead note
| /  Slide up
| \  Slide down

*******************
Suggest correction
Give kudos to tab author, rate the tab!
1 2 3 4 5
comments
print report bad tab
guest
You may want to rate the tab now too:
select rating
Wanna post a correction for this tab? Suggest correction