Oops, an error
Loading. Please wait.

Something To Believe In Tab

version 1
version 1

Whole song

  • This version is mainly for lead guitarists.
1,423 views 72 this week
no commentswrite comment
1 2 3 4 5
2 more votes to show rating
add to favorites
launch autoscroll
font size
0
reset
how to read this tab
guitar tuner
Autoscroll
slow
fast
+/-
esc
set tempo
stop
Help us to improve Ultimate-Guitar.com Take our survey!
×
Author
Difficulty
intermediate
[Intro]

e|------------------------------| ----------------------------------------------------har12---|
B|------------------------------| ------------------------------------------9-9-7-7---har12---|
G|------3----------6-----3------| ----------------------------------------------------har12---|
D|---3-4-------3-4----3-4-------|    F# 4 strums  *2  ---4-4-6-6-4-4------------------har12---|
A|--6---------6------6----------| ------------------------------------------------------------|
E|------------------------------| ------------------------------------------------------------|

no solo with first verse:
It gets old when you talk to the sun
In a tongue understood by no one
Can it be that I hear what he’s saying?
Is there a reason why I’m still awake?


[Pre-Chorus]

e|------------------------------------------------------------------|
B|------------------------------------------------------------------|
G|------------------------------------------------------------------|
D|-4-4-3-3-------------------------4-4-3-3-3------------------------|
A|---------6-6-6-6-6-6-6-6-6-4-4-4------------6-6-6-6-6-6-6-6-------|
E|------------------------------------------------------------------|

e|------------------------------------------------------------------|
B|------------------------------------------------------------------|
G|------------------------------------------------------------------|
D|-8-8-6-6-4-------------------3-3-3-4-4-3--------------------------|
A|-----------6-6-6-6-6-6-6-6-6-------------6-6-6-6-6-6-6-6----------|
E|------------------------------------------------------------------|


(Pre-Chorus lyrics)

And he says
I’ve got you written
In a black book! By the railroad track
You see I know your fate
And I say!
You’ve got to listen
I’m a songbird with a brand new track
You underestimate!


[Chorus]

e|------------------------------------|
B|------------------------------------|
G|----------------------------~-------|
D|-----------4-4-4-4-3-3-3-3----------|
A|-6-6-4-4-4--------------------------|        *4
E|------------------------------------|


(Chorus lyrics)

I’ll give you something to believe in
Burn up a basement full of demons
Realize you’re a slave to your mind
Break free!
Now give me something to believe in!

(first intro solo with the next line)
Just give me, just give me something to believe in


[Verse 2]

e|------------------------------| ----------------------------------------------------har12---|
B|------------------------------| ------------------------------------------9-9-7-7---har12---|
G|------3----------6-----3------| ----------------------------------------------------har12---|
D|---3-4-------3-4----3-4-------| -- F# 4 strums  *2  ---4-4-6-6-4-4------------------har12---|
A|--6---------6------6----------| ------------------------------------------------------------|
E|------------------------------| ------------------------------------------------------------|

e|------------------------------------------------------------------|
B|------------------------------------------------------------------|
G|------------------------------------------------------------------|
D|-4-4-3-3-------------------------4-4-3-3-3 -----------------------|
A|---------6-6-6-6-6-6-6-6-6-4-4-4------------6-6-6-6-6-6-6-6-------|
E|------------------------------------------------------------------|


(Verse lyrics)

Every day when I speak to the moon
Pale as a ghost in the afternoon
Tragedy has a hold on my mind
But I can see the light between the lines


[Pre-Chorus]

e|------------------------------------------------------------------|
B|------------------------------------------------------------------|
G|------------------------------------------------------------------|
D|-8-8-6-6-4-------------------3-3-3-4-4-3- ------------------------|
A|-----------6-6-6-6-6-6-6-6-6-------------6-6-6-6-6-6-6-6----------|
E|------------------------------------------------------------------|


(Pre-Chorus lyrics)

And I say
You’ve got to listen
I’m a songbird with a brand new track
You underestimate! Ooh!


[Chorus]

e|------------------------------------|
B|------------------------------------|
G|----------------------------~-------|
D|-----------4-4-4-4-3-3-3-3----------|
A|-6-6-4-4-4--------------------------|        *4
E|------------------------------------|


[Intro Solo]

e|------------------------------| 
B|------------------------------| 
G|------3----------6-----3------| 
D|---3-4-------3-4----3-4--------     F# *4   (on the second and forth times play solo, don't strum f#)
A|--6---------6------6----------|
E|------------------------------|
with intro solo:
 Promise me!
So afraid I’m a slave to my mind
You give something to believe in!


[Verse]  
(strum only f# for this verse)

I’ve got you written
In a black book! By the railroad track
You see I know your fate
And I say!
You’ve got to listen
I’m a songbird with a brand new track
You underestimate!

[Chorus]
e|------------------------------------|
B|------------------------------------|
G|----------------------------~-------|
D|-----------4-4-4-4-3-3-3-3----------|
A|-6-6-4-4-4--------------------------|        *4
E|------------------------------------|

[Intro Solo]

e|------------------------------| 
B|------------------------------| 
G|------3----------6-----3------| 
D|---3-4-------3-4----3-4--------     F# *2  f# to end it
A|--6---------6------6----------|
E|------------------------------|



************************************

| ~     Vibrato
| har   harmonix

************************************
Suggest correction
Give kudos to tab author, rate the tab!
1 2 3 4 5
comments
print report bad tab
guest
You may want to rate the tab now too:
select rating
Wanna post a correction for this tab? Suggest correction