Oops, an error
Loading. Please wait.

Something To Believe In Tab

version 2
version 2

Whole song

  • This version is mainly for lead guitarists.
778 views 21 this week
3 commentsread comments
1 2 3 4 5
x 8
add to favorites
launch autoscroll
font size
0
reset
how to read this tab
guitar tuner
Autoscroll
slow
fast
+/-
esc
set tempo
stop
Help us to improve Ultimate-Guitar.com Take our survey!
×
Author
Difficulty
intermediate
About this tab version
This version is mainly for lead guitarists. Was this info helpful? Yes No
Hope You guys enjoy as much as I did making this tab. 

Tabbed by Izach Prince Paul


///Something To Believe In by Young The Giant Tab///

[Intro]

e|---------------------------------------------------------------------------|
B|-----------11----------------14---------------11-----------11-11-11--------|
G|-----10-11-------------10-11------------10-11--------------11-11-11--------|
D|--13----------------13---------------13------------------------------------|
A|---------------------------------------------------------------------------|
E|---------------------------------------------------------------------------|

e|-----------------------------------------------------------11-11-11--------|
B|-----------11----------------14---------------11-----------11-11-11--------|
G|-----10-11-------------10-11------------10-11--------------11-11-11--------|
D|--13----------------13---------------13------------------------------------|
A|---------------------------------------------------------------------------|
E|---------------------------------------------------------------------------|

e|---------------------------------------------------------------------------|
B|--7-7--9-9--7-7------7-7--6-6----------------------------------------------|
G|--8-8--8-8--8-8------8-8--6-6----------------------------------------------|
D|---------------------------------------------------------------------------|
A|---------------------------------------------------------------------------|
E|---------------------------------------------------------------------------|



[Pre-Chorus]

e|---------------------------------------------------------------------------|
B|---------------------------------------------------------------------------|
G|---------------------------------------------------------------------------|
D|-/4-4-3-3-3-3-1-1-1-1-1-1-1-1-1-------4-4-4-4-1-1-1-1-1-1-1-1-1------------|
A|--------------------------------4-4-4--------------------------------------|
E|---------------------------------------------------------------------------|

e|---------------------------------------------------------------------------|
B|---------------------------------------------------------------------------|
G|---------------------------------------------------------------------------|
D|--8-8-6-6-6-6-1-1-1-1-1-1-1-1-3-3-3-4-4-4-4-1-1-1-1-1-1-1-1-1--------------|
A|---------------------------------------------------------------------------|
E|---------------------------------------------------------------------------|


[Chorus]                                          

e|-----------------------------------------|      -------------------|
B|--7-7--6-6-6-------11-11--4-4-4----------|      -----18b19---------|
G|--8-8--6-6-6-------11-11--4-4-4----------|      -------------------|   There's this small bend in between
D|--------------------------4-4-4----------|      -------------------|   the chorus. Very noticeable.
A|-----------------------------------------|      -------------------|
E|-----------------------------------------|      -------------------|

e|-----------------------------------------|      -------------------|
B|--7-7--6-6-6-------11-11--4-4-4----------|      -----16b17---------|
G|--8-8--6-6-6-------11-11--4-4-4----------|      -------------------|   There's another small bend in between
D|--------------------------4-4-4----------|      -------------------|   the chorus. Very noticeable.
A|-----------------------------------------|      -------------------|
E|-----------------------------------------|      -------------------|

e|-----------------------------------------|      -------------------|
B|--7-7--6-6-6-------11-11--4-4-4----------|      -----18b19---------|
G|--8-8--6-6-6-------11-11--4-4-4----------|      -------------------|   Same drill.
D|--------------------------4-4-4----------|      -------------------|   
A|-----------------------------------------|      -------------------|
E|-----------------------------------------|      -------------------|

e|-----------------------------------------|
B|--7-7-7-7-7-7-7-7--9-9-9-9-9-9-9-9-------|
G|--8-8-8-8-8-8-8-8--8-8-8-8-8-8-8-8-------|
D|-----------------------------------------|
A|-----------------------------------------|
E|-----------------------------------------|


[Intro]

e|---------------------------------------------------------------------------|
B|-----------11----------------14---------------11-----------11-11-11--------|
G|-----10-11-------------10-11------------10-11--------------11-11-11--------|
D|--13----------------13---------------13------------------------------------|
A|---------------------------------------------------------------------------|
E|---------------------------------------------------------------------------|

e|-----------------------------------------------------------11-11-11--------|
B|-----------11----------------14---------------11-----------11-11-11--------|
G|-----10-11-------------10-11------------10-11--------------11-11-11--------|
D|--13----------------13---------------13------------------------------------|
A|---------------------------------------------------------------------------|
E|---------------------------------------------------------------------------|

e|---------------------------------------------------------------------------|
B|--7-7--9-9--7-7------7-7--6-6----------------------------------------------|
G|--8-8--8-8--8-8------8-8--6-6----------------------------------------------|
D|---------------------------------------------------------------------------|
A|---------------------------------------------------------------------------|
E|---------------------------------------------------------------------------|

[Pre-Chorus]

e|---------------------------------------------------------------------------|
B|---------------------------------------------------------------------------|
G|---------------------------------------------------------------------------|
D|-/4-4-3-3-3-3-1-1-1-1-1-1-1-1-1-------4-4-4-4-1-1-1-1-1-1-1-1-1------------|
A|--------------------------------4-4-4--------------------------------------|
E|---------------------------------------------------------------------------|

e|---------------------------------------------------------------------------|
B|---------------------------------------------------------------------------|
G|---------------------------------------------------------------------------|
D|--8-8-6-6-6-6-1-1-1-1-1-1-1-1-3-3-3-4-4-4-4-1-1-1-1-1-1-1-1-1--------------|
A|---------------------------------------------------------------------------|
E|---------------------------------------------------------------------------|


[Chorus]                                          

e|-----------------------------------------|      -------------------|
B|--7-7--6-6-6-------11-11--4-4-4----------|      -----18b19---------|
G|--8-8--6-6-6-------11-11--4-4-4----------|      -------------------|   There's this small bend in between
D|--------------------------4-4-4----------|      -------------------|   the chorus. Very noticeable.
A|-----------------------------------------|      -------------------|
E|-----------------------------------------|      -------------------|

e|-----------------------------------------|      -------------------|
B|--7-7--6-6-6-------11-11--4-4-4----------|      -----16b17---------|
G|--8-8--6-6-6-------11-11--4-4-4----------|      -------------------|   There's another small bend in between
D|--------------------------4-4-4----------|      -------------------|   the chorus. Very noticeable.
A|-----------------------------------------|      -------------------|
E|-----------------------------------------|      -------------------|

e|-----------------------------------------|      -------------------|
B|--7-7--6-6-6-------11-11--4-4-4----------|      -----18b19---------|
G|--8-8--6-6-6-------11-11--4-4-4----------|      -------------------|   Same drill.
D|--------------------------4-4-4----------|      -------------------|   
A|-----------------------------------------|      -------------------|
E|-----------------------------------------|      -------------------|

e|-----------------------------------------|
B|--7-7-7-7-7-7-7-7--9-9-9-9-9-9-9-9-------|
G|--8-8-8-8-8-8-8-8--8-8-8-8-8-8-8-8-------|
D|-----------------------------------------|
A|-----------------------------------------|
E|-----------------------------------------|



[Bridge]

e|---------------------------------------------------------------------------|
B|-----------11----------------14---------------11-----------11-11-11--------|
G|-----10-11-------------10-11------------10-11--------------11-11-11--------|
D|--13----------------13---------------13------------------------------------|
A|---------------------------------------------------------------------------|
E|---------------------------------------------------------------------------|

e|--------------------------------------|
B|-----------11----------------14-------|
G|-----10-11-------------10-11----------|
D|--13----------------13----------------|
A|--------------------------------------|
E|--------------------------------------|

e|-----------------------------------------------------------11-11-11--------|
B|-----------11----------------14---------------11-----------11-11-11--------|
G|-----10-11-------------10-11------------10-11--------------11-11-11--------|
D|--13----------------13---------------13------------------------------------|
A|---------------------------------------------------------------------------|
E|---------------------------------------------------------------------------|

e|--------------------------------------|
B|-----------11----------------14-------|
G|-----10-11-------------10-11----------|
D|--13----------------13----------------|
A|--------------------------------------|
E|--------------------------------------|


[Pre-Chorus]

e|-------\16--------|
B|------------------|
G|------------------| There's this one tiny slide down
D|------------------|
A|------------------|
E|------------------|



[Chorus]                                          

e|-----------------------------------------|      -------------------|
B|--7-7--6-6-6-------11-11--4-4-4----------|      -----18b19---------|
G|--8-8--6-6-6-------11-11--4-4-4----------|      -------------------|   There's this small bend in between
D|--------------------------4-4-4----------|      -------------------|   the chorus. Very noticeable.
A|-----------------------------------------|      -------------------|
E|-----------------------------------------|      -------------------|

e|-----------------------------------------|      -------------------|
B|--7-7--6-6-6-------11-11--4-4-4----------|      -----16b17---------|
G|--8-8--6-6-6-------11-11--4-4-4----------|      -------------------|   There's another small bend in between
D|--------------------------4-4-4----------|      -------------------|   the chorus. Very noticeable.
A|-----------------------------------------|      -------------------|
E|-----------------------------------------|      -------------------|

e|-----------------------------------------|      -------------------|
B|--7-7--6-6-6-------11-11--4-4-4----------|      -----18b19---------|
G|--8-8--6-6-6-------11-11--4-4-4----------|      -------------------|   Same drill.
D|--------------------------4-4-4----------|      -------------------|   
A|-----------------------------------------|      -------------------|
E|-----------------------------------------|      -------------------|

e|-----------------------------------------|
B|--7-7-7-7-7-7-7-7--9-9-9-9-9-9-9-9-------|
G|--8-8-8-8-8-8-8-8--8-8-8-8-8-8-8-8-------|
D|-----------------------------------------|
A|-----------------------------------------|
E|-----------------------------------------|






[Outro]

e|---------------------------------------------------------------------------|  e|----------|
B|-----------11----------------14---------------11-----------11-11-11--------|  B|---18b19--|
G|-----10-11-------------10-11------------10-11--------------11-11-11--------|  G|----------|
D|--13----------------13---------------13------------------------------------|  D|----------|
A|---------------------------------------------------------------------------|  A|----------|
E|---------------------------------------------------------------------------|  E|----------|

e|-----------------------------------------------------------11-11-11--------|
B|-----------11----------------14---------------11-----------11-11-11--------|
G|-----10-11-------------10-11------------10-11--------------11-11-11--------|
D|--13----------------13---------------13------------------------------------|
A|---------------------------------------------------------------------------|
E|---------------------------------------------------------------------------|






************************************

| x   Dead note
| g   Grace note
| (n) Ghost note
| h   Hammer-on
| p   Pull-off
| r   Release
| >   Accented note
| t   Tapping
| b   Bend
| br  Bend release
| pb  Pre-bend
| pbr Pre-bend release
| /   Slide up
| \   Slide down
| ~   Vibrato
| s   Slap
| P   Pop
| PM  Palm mute
| TR  Trill
| N   Tremolo

************************************
Suggest correction
comments
print report bad tab
3 comments total.
0 reply
helpehelpe17 10 Sep 16, 2016 10:29 AM

Really Good! Keep up the good work!

0 reply
zachismyname14 10 Sep 16, 2016 10:31 AM

AWESOME!!! I now can play along to the song thanks to you!

0 reply
helpee17 10 Sep 16, 2016 10:33 AM

Great Job mate!!!

guest
You may want to rate the tab now too:
select rating
Wanna post a correction for this tab? Suggest correction