Oops, an error
Loading. Please wait.

Strings Bass Tab

55 views 3 this week
no commentswrite comment
1 2 3 4 5
3 more votes to show rating
add to favorites
launch autoscroll
font size
0
reset
guitar tuner
Autoscroll
slow
fast
+/-
esc
set tempo
stop
Help us to improve Ultimate-Guitar.com Take our survey!
×
Author
Difficulty
Tabbed by: Asa Wentworth
Email: stroodleman8451@yahoo.com

Song: Strings
Artist: Young the Giant
Album: Young the Giant
Tuning: Standard

Everything should be correct except the bridge and the ending, 
I haven't figured those out all the way yet, so suggestions appreciated.

Intro:

0:01
g|------------------------------------------------------------------------| 
d|------------------------------------------------------------------------|
a|---3-x-3-x-3---3-x-3-x-3---5-x-5-x-5---5-x-5-x-5------------------------| x2
e|------------------------------------------------------------------------|

Verse:

1:16
"Oh, what did I say?"
g|-----------------------------------------------------------------------| 
d|-----------------------------------------------------------------------|
a|---3-x-3-x-3---0-3-x-3-x-3---5-x-5-x-5---3-5-x-5-x-5-------------------| x3
e|-----------------------------------------------------------------------|

Pre-Chorus:

0:44
"The tide..."
g|--------------------------------------------------------------| 
d|-----------12----------12-------------------------------------|
a|-------10----------10-----------10--10--10-\-5h7-5-3----------|
e|---12----------12----------12---------------------------------|

Chorus:

0:52
"I..."
g|-------------------------------------------------------------------| 
d|-------------------------------------------------------------------|
a|---3-x-3-x-3---------3-x-3-x-3-------5-x-5-x-5--5------------------|
e|--------------3-6-4-------------3--5--------------3-x-3-x-3--------|
                                                                                                          
g|-------------------------------------------------------------------| 
d|--------------------------------------------------5-x-5-x-5--------|
a|---3-x-3-x-3---------3-x-3-x-3-------5-x-5-x-5--5------------------|
e|--------------3-6-4-------------3--5-------------------------------|

Post-Chorus:

1:10
g|-------------------------------------------------------------| 
d|-------------------------------------------------------------|
a|---5-5-5--5-5-5-7\-------------------------------------------|
e|-------------------------------------------------------------|

g|-------------------------------------------------------------| 
d|-------------------------------------------------------------|
a|---3-x-3-x-3---3-x-3-x-3---5-x-5-x-5---5-x-5-x-5-------------|
e|-------------------------------------------------------------|

Verse:

1:23
"Oh, what did I say?"
g|-----------------------------------------------------------------------| 
d|-----------------------------------------------------------------------|
a|---3-x-3-x-3---3-x-3-x-3---5-x-5-x-5---3-5-x-5-x-5---------------------| x3
e|-----------------------------------------------------------------------|

Pre-Chorus:

1:48
"The flames..."
g|--------------------------------------------------------------| 
d|-----------12----------12-------------------------------------|
a|-------10----------10-----------10--10--10-\-5h7-5-3----------|
e|---12----------12----------12---------------------------------|

Chorus:

1:57
"I..."
g|-------------------------------------------------------------------| 
d|-------------------------------------------------------------------|
a|---3-x-3-x-3---------3-x-3-x-3-------5-x-5-x-5--5------------------|
e|--------------3-6-4-------------3--5--------------3-x-3-x-3--------|
                                                                      x2    
g|-------------------------------------------------------------------| 
d|----------------------------------------------------5-x-5-x-5------|
a|---3-x-3-x-3---------3-x-3-x-3--3-5-7--5-x-5-x-5--5----------------|
e|--------------3-6-4------------------------------------------------|

Bridge:

2:32
g|---------------------------------------------------------------------|
d|---12----10-----12----10----------10---------10----10-12-14-12-10----|
a|------12-----12----12------12\-----------10-----10-------------------|
e|--------------------------------8-----8------------------------------|

g|----------------------------------------------------------------------------------| 
d|----------10-------10--12----10-----12----10-----12----10-----12----10------------|
a|---12\---------10---------12-----12----12-----12----12-----12----12-----12/-------|
e|--------8----8--------------------------------------------------------------------|

g|----------------------------------------------------------------------------------| 
d|----------------------------------------------------------------------------------|
a|---10-10-10-10-10-10-10-10-10-10-10-10/17h19-17-15\-------------------------------|
e|----------------------------------------------------------------------------------|

Final Chorus:

3:02
"I..."
g|-------------------------------------------------------------------| 
d|-------------------------------------------------------------------|
a|---3-x-3-x-3---------3-x-3-x-3-------5-x-5-x-5--5------------------|
e|--------------3-6-4-------------3--5--------------3-x-3-x-3--------|
                                                                      x2    
g|-------------------------------------------------------------------| 
d|----------------------------------------------------5-x-5-x-5------|
a|---3-x-3-x-3---------3-x-3-x-3--3-5-7--5-x-5-x-5--5----------------|
e|--------------3-6-4------------------------------------------------|

3:36
g|----------------------------------------------------------------------|
d|---12----10-----12----10-----------10-12-14-12-10---------------------|
a|------12-----12----12-----12\---10------------------------------------| x2
e|------------------------------8---------------------------------------|

g|----------------------------------------------------------------| 
d|---12----10-----12----10--------10------------------------------|
a|------12-----12----12-----10h12---------------------------------|
e|----------------------------------------------------------------|

Rate & Comment!






Suggest correction
Give kudos to tab author, rate the tab!
1 2 3 4 5
comments
print report bad tab
guest
You may want to rate the tab now too:
select rating
Wanna post a correction for this tab? Suggest correction