Oops, an error
Loading. Please wait.

Teachers Bass Tab

46 views 1 this week
no commentswrite comment
1 2 3 4 5
3 more votes to show rating
add to favorites
launch autoscroll
font size
0
reset
guitar tuner
Autoscroll
slow
fast
+/-
esc
set tempo
stop
Help us to improve Ultimate-Guitar.com Take our survey!
×
Author
Difficulty
Tabbed by: Asa Wentworth
Email: asawentworth@yahoo.com

Song: Teachers
Artist: Young the Giant
Album: Mind Over Matter
Tuning: Standard

Verse:

0:11
"Teachers..."
g|------------------------------------------------------------------------| 
d|------------------------------------------------------------------------|
a|------3-3--3-3-3--3-7-7--7-7-7--7---------------------------------------|
e|---3--------------------------------------------------------------------|

g|------------------------------------------------------------------------| 
d|------------------------------------------------------------------------|
a|---------------------------------------------3-3--3-3-3--3--------------|
e|---3-3--3-3-3--3-3-3--3-3-3--3-0-0--0-0-0--0----------------------------|

g|------------------------------------------------------------------------| 
d|------------------------------------------------------------------------|
a|-------------------------------3-3--3-3-3--3-7-7--7-7-7--7--------------|
e|---3-3--3-3-3--3-3-3--3-3-3--3------------------------------------------|

g|------------------------------------------------------------------------| 
d|------------------------------------------------------------------------|
a|---------------------------------------------3-3--3-3-3--3--------------|
e|---3-3--3-3-3--3-3-3--3-3-3--3-0-0--0-0-0--0----------------------------|

Pre Chorus:

0:34
g|-----------------------------------------------------------------| 
d|-----------------------------------------------------------------|
a|-----------------------------------------------------------------|
e|---5------5------3------3---3------------------------------------|
the first 5 is played really quickly after "you're fucked up", 
then the second 5 is played before "the friends you crossed off"
the first 3 is played after "you crossed off"
the next 3's are played three seconds after the last 3

Chorus:

0:45
"And I know it's hard to be sane!"
g|----------------------------------------------------------------------| 
d|----------------------------------------------------------------------|
a|---3-3-3-3-3-3-3-3-3-3-3-3-3-3-3-3-3-3-3-3-3-3-3-3-3-3-3-3-3-3-3-3----|
e|----------------------------------------------------------------------|

g|-------------------------------------------------------------------| 
d|-------------------------------------------------------------------|
a|-------------------------------------------------------------------|
e|---3-3-3-3-0h3-3-3-3-0h3-3-3-3-0h3-3-3-3---------------------------|

g|----------------------------------------------------------------------| 
d|----------------------------------------------------------------------|
a|---3-3-3-3-3-3-3-3-3-3-3-3-3-3-3-3-3-3-3-3-3-3-3-3-3-3-3-3-3-3-3-3----|
e|----------------------------------------------------------------------|

Verse:

1:03
g|--------------------------------------------------------------------------------| 
d|--------------------------------------------------------------------------------|
a|---7----5----3-3-3-3-3-3-3-3-3-3-3-3-3-3-3-3-3-3-3-3-3-3-3-3-3-3-3-3-3-3-3-3----|
e|--------------------------------------------------------------------------------|

1:13
g|-------------------------------------------------------------------| 
d|-------------------------------------------------------------------|
a|-------------------------------------------------------------------|
e|---3-3--3-3-3--3-3-3--3-3-3--3-3-3--3-3-3--3-3---------------------|


1:18
"Won't you ask me..."
g|-------------------------------------------------------------------| 
d|-------------------------------------------------------------------|
a|---------------------------3--3-3-3-3--7--7-7-7-7------------------|
e|---3----3-3-3--3--3-3-3-3------------------------------------------|

g|-------------------------------------------------------------------| 
d|-------------------------------------------------------------------|
a|---------------------------------------3--3-3-3-3------------------|
e|---3--3-3-3-3--3--3-3-3-3--0--0-0-0-0------------------------------|

g|-------------------------------------------------------------------| 
d|-------------------------------------------------------------------|
a|-----------------------------3--3-3-3-3--7--7-7-7-7----------------|
e|---3-3--3-3-3-3--3--3-3-3-3----------------------------------------|

g|-------------------------------------------------------------------| 
d|-------------------------------------------------------------------|
a|---------------------------------------3--3-3-3--------------------|
e|---3--3-3-3-3--3--3-3-3-3--0--0-0-0-0------------------------------|
listen for the timing at this part

Pre Chorus:

1:41
"...remember..."
g|----------------------------------------------| 
d|----------------------------------------------|
a|----------------------------------------------|
e|---5------5------3------3---3-----------------|

Chorus:

1:53
"And I know it's hard to be sane!"
g|----------------------------------------------------------------------| 
d|----------------------------------------------------------------------|
a|---3-3-3-3-3-3-3-3-3-3-3-3-3-3-3-3-3-3-3-3-3-3-3-3-3-3-3-3-3-3-3-3----|
e|----------------------------------------------------------------------|

g|-------------------------------------------------------------------| 
d|-------------------------------------------------------------------|
a|-------------------------------------------------------------------|
e|---3-3-3-3-0h3-3-3-3-0h3-3-3-3-0h3-3-3-3---------------------------|

g|----------------------------------------------------------------------| 
d|----------------------------------------------------------------------|
a|---3-3-3-3-3-3-3-3-3-3-3-3-3-3-3-3-3-3-3-3-3-3-3-3-3-3-3-3-3-3-3-3----|
e|----------------------------------------------------------------------|

Bridge:

2:15
"...car..."
g|----------------------------------| 
d|----------------------------------|
a|---5-----------3------------------|
e|----------------------------------|
play the 3 on "boulevard"

"...are..."
g|-------------------------------------------------------------------------------------| 
d|-------------------------------------------------------------------------------------|
a|------------------------------------------5--5-5-5--5--5-5-5--5--5-5-5--5--5-5-5-----|
e|---0--0-0-0--0--0-0-0--0--0-0-0--0--0-0-0--------------------------------------------|

g|---------------------------------------------| 
d|---------------------------------------------|
a|---3--3-3-3--3--3-3-3--3--3-3-3--3--3-3-3----|
e|---------------------------------------------|

2:43
g|---------------------------------------------------------------| 
d|---------------------------------------------------------------|
a|---------------------------------------------------------------|
e|---3----3----3---3---3--3--3-3---------------------------------|
timing here is hard

Final Chorus:

2:56
g|----------------------------------------------------------------------| 
d|----------------------------------------------------------------------|
a|---3-3-3-3-3-3-3-3-3-3-3-3-3-3-3-3-3-3-3-3-3-3-3-3-3-3-3-3-3-3-3-3----|
e|----------------------------------------------------------------------|

g|-------------------------------------------------------------------| 
d|-------------------------------------------------------------------|
a|-------------------------------------------------------------------|
e|---3-3-3-3-0h3-3-3-3-0h3-3-3-3-0h3-3-3-3---------------------------|

g|----------------------------------------------------------------------| 
d|----------------------------------------------------------------------|
a|---3-3-3-3-3-3-3-3-3-3-3-3-3-3-3-3-3-3-3-3-3-3-3-3-3-3-3-3-3-3-3-3----|
e|----------------------------------------------------------------------|

"Right now!"
g|-------------------------------------------------------------------| 
d|-------------------------------------------------------------------|
a|-------------------------------------------------------------------|
e|---3-3-3-3-0h3-3-3-3-0h3-3-3-3-0h3-3-3-3---------------------------|

"I need this release now!"
g|----------------------------------------------------------------------| 
d|----------------------------------------------------------------------|
a|---3-3-3-3-3-3-3-3-3-3-3-3-3-3-3-3-3-3-3-3-3-3-3-3-3-3-3-3-3-3-3-3----|
e|----------------------------------------------------------------------|

g|-------------------------------------------------------------------| 
d|-------------------------------------------------------------------|
a|---------------------------------------------3---------------------|
e|---3-3-3-3-0h3-3-3-3-0h3-3-3-3-0h3---------------------------------|
let the 3 ring out

That's it!

Rate & comment!
Suggest correction
Give kudos to tab author, rate the tab!
1 2 3 4 5
comments
print report bad tab
guest
You may want to rate the tab now too:
select rating
Wanna post a correction for this tab? Suggest correction