Oops, an error
Loading. Please wait.

Titus Was Born tab

4,381 views 60 this week
no commentswrite comment
1 2 3 4 5
x 12
add to favorites
×
Save as Personal and add changes to this tab that will be seen only by you. Learn more ›
×
You can save this tab as Personal to edit and correct it or add notes. All changes will be seen only by you. Learn more »
launch autoscroll
font size
0
reset
how to read this tab
guitar tuner
edit
Autoscroll
slow
fast
+/-
esc
set tempo
stop
Author
Difficulty
[Chords Used]
    G    Em    C    Am7
e|--x----0-----3-----0--|
B|--8----8-----1-----1--| 
G|--0----0-----0-----0--|
D|--9----9-----2-----2--| 
A|--10---7-----3-----0--| 
E|--x----x-----x-----x--| 

Note: rhythm is indicated above tab.


[Intro]

    1 e + a 2 e + a 3 e + a 4 e + a  1 e + a 2 e + a 3 e + a 4 e + a   \
e|----------------------------------|---------------------------------| |
B|--3-----1---0------------------(0)|---------------------------------| |
G|----------------0-----0---------0-|----0---------0-----0---------0--| |
D|------0-------0-------0-----0-----|----0-----0---------0-----0------| |
A|------------------------------2---|------------2---------------2----| |
E|--3-------3-------3-------3-------|3-------3-------3-------3--------| |
...................................PM.................................  |
                                                                        | - 2x
    1 e + a 2 e + a 3 e + a 4 e + a  1 e + a 2 e + a 3 e + a 4 e + a    |
e|----------------------------------|---------------------------------| |
B|--1-----0-------------------------|---------------------------------| |
G|------------2---0-----0---------0-|----0---------0-----0------------| |
D|------0-------0-------0-----0-----|----0-----0---------0-----0---0--| |
A|------------------------------3---|------------3---------------3----| |
E|--1-------1-------1-------1-------|1-------1-------1-------1--------| |
...................................PM................................. /
                                                                      
Note: (0) - play open the second time around for the intro only


[Verse 1]

    1 e + a 2 e + a 3 e + a 4 e + a  1 e + a 2 e + a 3 e + a 4 e + a   \
e|----------------------------------|---------------------------------| |
B|--3-----1---0---------------------|---------------------------------| |
G|----------------0-----0---------0-|----0---------0-----0---------0--| |
D|------0-------0-------0-----0-----|----0-----0---------0-----0------| |
A|------------------------------2---|------------2---------------2----| |
E|--3-------3-------3-------3-------|3-------3-------3-------3--------| |
...................................PM.................................  |
                                                                        | - 2x
    1 e + a 2 e + a 3 e + a 4 e + a  1 e + a 2 e + a 3 e + a 4 e + a    |
e|----------------------------------|---------------------------------| |
B|--1-----0-------------------------|---------------------------------| |
G|------------2---0-----0---------0-|----0---------0-----0------------| |
D|------0-------0-------0-----0-----|----0-----0---------0-----0---0--| |
A|------------------------------3---|------------3---------------3----| |
E|--1-------1-------1-------1-------|1-------1-------1-------1--------| |
...................................PM................................. /
                                                                      
    1 e + a 2 e + a 3 e + a 4 e + a  1 e + a 2 e + a 3 e + a 4 e + a
e|--3-----2---0---------------------|---------------------------------|
B|----------------------------------|7--------------------------------|
G|------0---------0-----0-----------|------9---7----------------------|
D|--------------2-------0-----0-----|----0-------0-----0---0---0------|
A|--3-------3-------3-------3---3---|--------------9-----9-------9----|
E|----------------------------------|7-------7-------7-------7--------|
...................................PM..................................

    1 e + a 2 e + a 3 e + a 4 e + a  1 e + a 2 e + a 3 e + a 4 e + a
e|--0-------------------------------|---------------------------------|
B|--------3---1---------------------|---------------------------------|
G|----------------0-----0---------0-|----0---------0-----0---------0--|
D|------2-------2-------0-----0-----|----0-----0---------0-----0------|
A|--0-------0-------0-------0---0---|0-------0---0---0-------0---0----|
E|----------------------------------|---------------------------------|
...................................PM..................................


[Interlude]
Same as intro


[Verse 2]

    1 e + a 2 e + a 3 e + a 4 e + a  1 e + a 2 e + a 3 e + a 4 e + a   \
e|----------------------------------|---------------------------------| |
B|--3-----1---0---------------------|---------------------------------| |
G|----------------0-----0---------0-|----0---------0-----0---------0--| |
D|------0-------0-------0-----0-----|----0-----0---------0-----0------| |
A|------------------------------2---|------------2---------------2----| |
E|--3-------3-------3-------3-------|3-------3-------3-------3--------| |
...................................PM.................................  |
                                                                        | - 2x
    1 e + a 2 e + a 3 e + a 4 e + a  1 e + a 2 e + a 3 e + a 4 e + a    |
e|----------------------------------|---------------------------------| |
B|--1-----0-------------------------|---------------------------------| |
G|------------2---0-----0---------0-|----0---------0-----0------------| |
D|------0-------0-------0-----0-----|----0-----0---------0-----0---0--| |
A|------------------------------3---|------------3---------------3----| |
E|--1-------1-------1-------1-------|1-------1-------1-------1--------| |
...................................PM................................. /
                                                                      
    1 e + a 2 e + a 3 e + a 4 e + a  1 e + a 2 e + a 3 e + a 4 e + a   \
e|--3-----2---0---------------------|---------------------------------| |
B|----------------------------------|7--------------------------------| |
G|------0---------0-----0-----------|------9---7----------------------| |
D|--------------2-------0-----0-----|----0-------0-----0---0---0------| |
A|--3-------3-------3-------3---3---|--------------9-----9-------9----| |
E|----------------------------------|7-------7-------7-------7--------| |
...................................PM.................................  |
                                                                        | - 2x
    1 e + a 2 e + a 3 e + a 4 e + a  1 e + a 2 e + a 3 e + a 4 e + a    |
e|--0-------------------------------|---------------------------------| |
B|--------3---1---------------------|---------------------------------| |
G|----------------0-----0---------0-|----0---------0-----0---------0--| |
D|------2-------2-------0-----0-----|----0-----0---------0-----0------| |
A|--0-------0-------0-------0---0---|0-------0---0---0-------0---0----| |
E|----------------------------------|---------------------------------| |
...................................PM................................. /


[Chorus]

    1 e + a 2 e + a 3 e + a 4 e + a  1 e + a 2 e + a 3 e + a 4 e + a   \
e|--------------0~------------------|3~----------0~-------------------| |
B|--3~----------3~------------------|1~----------1~-------------------| |
G|--0~----------0~------------------|0~----------0~-------------------| | - 5x
D|----------------------------------|---------------------------------| |
A|----------------------------------|3~----------0~-------------------| |
E|--3~----------0~------------------|---------------------------------| |
                                                                       /
    1 e + a 2 e + a 3 e + a 4 e + a  
e|--------------0~-------------------|
B|--3~----------3~-------------------| 
G|--0~----------0~-------------------|
D|-----------------------------------| 
A|-----------------------------------| 
E|--3~----------0~-------------------| 
                                                                      
G Em C Am7 (12x)

Suggestion: end with strumming G once.

Another suggestion: instead of palm mutting the for half of the song, you can also interweave a piece of 
cloth or a thick piece of paper between the strings near the bridge. Then you can remove it once you reach
the chorus (feel free to message me if this suggestion doesn't make sense to you).

************************************

| x   Mute note
| ~   Let it ring
| PM  Palm mute
| +   Upbeat (rhythm)

************************************

            
            
Suggest correction
Creating personal tab
Creating personal tab
You can edit any tab online and save it as your Personal.

You can edit, replace or remove any tab part or add personal notes – all changes will be seen only by you.

Personal tabs can be accessed anytime from any device, even offline.
Learn more »
comments
print report bad tab
guest
You may want to rate the tab now too:
select rating
Wanna post a correction for this tab? Suggest correction