Oops, an error
Loading. Please wait.

Took A Turn Tab

22 views 1 this week
no commentswrite comment
1 2 3 4 5
3 more votes to show rating
add to favorites
launch autoscroll
font size
0
reset
how to read this tab
guitar tuner
Autoscroll
slow
fast
+/-
esc
set tempo
stop
Help us to improve Ultimate-Guitar.com Take our survey!
×
Author
Difficulty
Tuning
novice
D A D G B E
[Verse 1]

[Lead Guitar]
e|----------------------|
B|----------------------|
G|----------------------|
D|----------------------| 
A|------0-----0---4-----|
E|--4-4---4-4---4-------|(x50)


[Chorus]

[Lead Guitar]
e|----------------------|
B|----------------------|
G|----------------------|
D|----------------------| 
A|------0-----0---4-----|
E|--4-4---4-4---4-------|

[Rhythm Guitar]
e|--------------------------------|
B|----------------------------10--|
G|--7~--------5~------8~------8---|
D|--0---------0-------0-------0---|
A|--------------------------------|
E|--------------------------------|

e|--------------------------------|
B|--7~--------5~------8~----10----|
G|--0---------0-------0--------8--|
D|--------------------------------|
A|--------------------------------|
E|--------------------------------|

e|--------------------------------|
B|----------------------------10--|
G|--7~--------5~------8~------8---|
D|--0---------0-------0-------0---|
A|--------------------------------|
E|--------------------------------|

e|--------------------------------|
B|--------------------------------|
G|--7~--------5~------------------|
D|--0---------0-------------------|
A|--------------------0-----------|
E|--------------------4-----------|


[Interlude]

[Lead Guitar]
e|----------------------|
B|----------------------|
G|----------------------|
D|----------------------| 
A|------0-----0---4-----|
E|--4-4---4-4---4-------|

[Rhythm Guitar]
e|----------------------|
B|----------------------|
G|--4-2-4-2-------------|
D|--6-4-6-4-------------| 
A|----------------------|
E|----------------------|

e|------|
B|------|
G|------|
D|------| 
A|--0---|
E|--4---|(x75)


[Outro]

[Lead Guitar]
e|----------------------|
B|----------------------|
G|----------------------|
D|----------------------| 
A|------0-----0---4-----|
E|--4-4---4-4---4-------|

[Rhythm Guitar]
e|----------------------|
B|----------------------|
G|--4-2-4-2-------------|
D|--6-4-6-4-------------| 
A|----------------------|
E|----------------------|

e|------|
B|------|
G|------|
D|------| 
A|--0---|
E|--4---|(x30)

e|----------------------|
B|----------------------|
G|--4-2-4-2-------------|
D|--6-4-6-4-------------| 
A|----------------------|
E|----------------------|

e|------|
B|------|
G|------|
D|------| 
A|--0---|
E|--4---|(x20)

e|----------------------|
B|----------------------|
G|--4-2-4-2-------------|
D|--6-4-6-4-------------| 
A|----------------------|
E|----------------------|

e|------|
B|------|
G|------|
D|------| 
A|--0---|
E|--4---|(x30)

e|----------------------|
B|----------------------|
G|--4-2-4-2-------------|
D|--6-4-6-4-------------| 
A|----------------------|
E|----------------------|

e|------|
B|------|
G|------|
D|------| 
A|--0---|
E|--4---|(x20)

e|----------------------|
B|----------------------|
G|--4-2-4-2-------------|
D|--6-4-6-4-------------| 
A|----------------------|
E|----------------------|

e|------|
B|------|
G|------|
D|------| 
A|--0---|
E|--4---|(x30)

e|----------------------|
B|----------------------|
G|----------------------|
D|----------------------|
A|--4-2-4-2-------------|
E|--6-4-6-4-------------| 




************************************

| ~   Vibrato

************************************
Suggest correction
Give kudos to tab author, rate the tab!
1 2 3 4 5
comments
print report bad tab
guest
You may want to rate the tab now too:
select rating
Wanna post a correction for this tab? Suggest correction