Oops, an error
Loading. Please wait.

In Our Blood Tab

295 views 1 this week
no commentswrite comment
1 2 3 4 5
please rate
add to favorites
launch autoscroll
font size
0
reset
how to read this tab
guitar tuner
Autoscroll
slow
fast
+/-
esc
set tempo
stop
Help us to improve Ultimate-Guitar.com Take our survey!
×
Author
Song: In Our Blood
Artist: Youngblood Hawke
Tabbed by: Alex Courrier
Email: guitarhero_alex@hotmail.com
Tuning: Standard (EADGBe)

INTRO

e|-------------------------------|
B|-------------------------------|
G|---------------------7---------|
D|---3--------7--------7---------| (x2)
A|---3--------7--------5-(x16)---|
E|---1-(x8)---5-(x8)-------------|

Verse 1

e|---------------------------------------------------------|
B|---------------------------------------------------------|
G|---------------------------------------------------------|
D|---------------------------------------------------------|
A|---------------------8-5-----5--3-5-----5-3-0-5----------|
E|--1----1-1-0-1-3-5--------------------------------3------|

e|---------------------------------------------------------|
B|---------------------------------------------------------|
G|---------------------------------------------------------|
D|---------------------------------------------------------|
A|---------------------8-5-----8-7-5-3------8-7-5-3--------|
E|--1----1-1-0-1-3-5-------------------5------------3------|

e|---------------------------------------------------------|
B|---------------------------------------------------------|
G|---------------------------------------------------------|
D|---------------------------------------------------------|
A|---------------------8-5-----5--3-5-----5-3-0-5----------|
E|--1----1-1-0-1-3-5--------------------------------3------|

e|---------------------------------------------------------|
B|---------------------------------------------------------|
G|---------------------------------------------------------|
D|---------------------------------------------------------|
A|---------------------8-5-----8-7-5-3---------------------|
E|--1----1-1-0-1-3-5-------------------5/------------------|

Chorus 1

e|-------------------------------|
B|-------------------------------|
G|---------------------7---------|
D|---3--------7--------7---------| (x2)
A|---3--------7--------5-(x16)---|
E|---1-(x8)---5-(x8)-------------|

Verse 2

e|---------------------------------------------------------|
B|---------------------------------------------------------|
G|---------------------------------------------------------|
D|---------------------------------------------------------|
A|---------------------8-5-----5--3-5-----5-3-0-5----------|
E|--1--------0-1-3-5--------------------------------3------|

e|---------------------------------------------------------|
B|---------------------------------------------------------|
G|---------------------------------------------------------|
D|---------------------------------------------------------|
A|---------------------8-5-----8-7-5-3---------------------|
E|--1----1-1-0-1-3-5-------------------5/------------------|

Chorus 2

e|-------------------------------|
B|-------------------------------|
G|---------------------7---------|
D|---3--------7--------7---------| (x4)
A|---3--------7--------5-(x16)---|
E|---1-(x8)---5-(x8)-------------|


(Half way through Chorus 2 the lead guitar does some bending chords and solo work. I do 
not know what they are yet.)


Bridge (Played in live performances, cant hear the guitar in the actual song.)

e|-------------------------------------------|
B|-------------------------------------------|
G|----------------------7--------7-----------|
D|---3---------7--------7--------7-----------| (x4)
A|---3---------7--------5--------5-----------|
E|---1---------5-----------------------------|

Chorus 3

e|-------------------------------|
B|-------------------------------|
G|---------------------7---------|
D|---3--------7--------7---------| (x2)
A|---3--------7--------5-(x16)---|
E|---1-(x8)---5-(x8)-------------|

End on

e|--------|
B|--------|
G|--------|
D|---3----|
A|---3----|
E|---1----|

I do believe that most of this is right. A fun simple song. The solo is the only thing 
that is missing. Thanks for looking!
Suggest correction
What's this?
You can suggest a correction to this tab. Community and Mods will review your correction and vote to approve or reject it.
comments
We did not receive enough feedback on this tab! Please rate:
print report bad tab
1 2 3 4 5
guest
You may want to rate the tab now too:
select rating
Please do not post tabs as comments. Select "correction" instead!