Oops, an error
Loading. Please wait.

Fuck Everyone tab

202 views 1 this week
no commentswrite comment
1 2 3 4 5
2 more votes to show rating
add to favorites
×
Save as Personal and add changes to this tab that will be seen only by you. Learn more ›
×
You can save this tab as Personal to edit and correct it or add notes. All changes will be seen only by you. Learn more »
launch autoscroll
font size
0
reset
how to read this tab
guitar tuner
edit
Autoscroll
slow
fast
+/-
esc
set tempo
stop
Tuning: drop D (e B G D A D)

/ - slide
~ - let ring
. - palm mute

// text - comment
text - lyrics

lyrics from http://www.lyricsmania.com/fuck_everyone_lyrics_your_demise.html


***********************************************************************************************


// 00:00 //

If you know me by now, 
you should know the way I think
I'm not a totally arrogant cunt 
-----------------------------------------------------------------------------------------------
-----------------------------------------------------------------------------------------------
-----------------------------------------------------------------------------------------------
-0-0-0-0--0-0-0-0-0-1~---0-0-0-0--0-0-0-0-0-1~---0-0-0-0--0-0-0-0-0-1~------------------------- x2
-0-0-0-0--0-0-0-0-0-1~---0-0-0-0--0-0-0-0-0-1~---0-0-0-0--0-0-0-0-0-1~-------------------------
-0-0-0-0--0-0-0-0-0-1~---0-0-0-0--0-0-0-0-0-1~---0-0-0-0--0-0-0-0-0-1~-------------------------
 . . . .  . . . .        . . . .  . . . .        . . . .  . . . .


// 00:20 //


but my attitude fucking stinks
-----------------------------------------------------------------------------------------------
-----------------------------------------------------------------------------------------------
-----------------------------------------------------------------------------------------------
-0-0-0-0--0-0-0-0-0-1~---0~~-/slide up pick/---------------------------------------------------
-0-0-0-0--0-0-0-0-0-1~---0~~-/slide up pick/---------------------------------------------------
-0-0-0-0--0-0-0-0-0-1~---0~~-/slide up pick/---------------------------------------------------
 . . . .  . . . .  

 
// 00:30 //


I always mean what I say and do but these are my opinions they're not the truth
I just open my mouth and let fucking loose
You can think what you want, it's your choice so choose
Don't expect me to change my ways
With these foolish thoughts is the way I'll stay
Even if your advice has a logical path
I'll just point my finger and fucking laugh
-----------------------------------------------------------------------------------------------
-----------------------------------------------------------------------------------------------
----------------------------------------------------------------------------------------------- 
-0--------7-------3---------0--------7-------3------------------------------------------------- x2
-0-[x16]--7-[x8]--3-[x8]----0-[x16]--7-[x8]--3-[x8]--------------------------------------------
-0--------7-------3---------0--------7-------3-------------------------------------------------


// 00:49 //


You're talking over me and say I do the same to you
I have no respect what you think, so what would you expect me to do?
You fucking hypocrite
You think you're something great
But this ironic bullshit is my disguise for hate
-----------------------------------------------------------------------------------------------
-----------------------------------------------------------------------------------------------
-----------------------------------------------------------------------------------------------
-0-0-0-0--0-0-0-0-0--7--3----0-0-0-0--0-0-0-0-0--7--3------------------------------------------ x4
-0-0-0-0--0-0-0-0-0--7--3----0-0-0-0--0-0-0-0-0--7--3------------------------------------------
-0-0-0-0--0-0-0-0-0--7--3----0-0-0-0--0-0-0-0-0--7--3------------------------------------------
 . . . .  . . . . .          . . . .  . . . . .


// 01:09 //


// This part ends with slowing guitar tempo (you can hear it)

I've made up my mind
I'm only telling you once
Maybe you'll soon find out 
I've been the prick you always thought I was
-----------------------------------------------------------------------------------------------
-----------------------------------------------------------------------------------------------
-----------------------------------------------------------------------------------------------
-0-0-0-0-7-3--0-0-0-0-7-3--0-0-0-0-7-3-0-6/1--------------------------------------------------- x4
-0-0-0-0-7-3--0-0-0-0-7-3--0-0-0-0-7-3-0-6/1---------------------------------------------------
-0-0-0-0-7-3--0-0-0-0-7-3--0-0-0-0-7-3-0-6/1---------------------------------------------------
   . . .        . . .        . . .     .


// 01:28 // 


I always say what's on my mind
I'll only tell you my opinions
Not the truth!
I always say what's on my mind
I'll only tell you my opinions
-----------------------------------------------------------------------------------------------
-----------------------------------------------------------------------------------------------
----------------------------------------------------------------------------------------------- 
-0--0--0--0--0--0--0--0--0--0--0--0--0--0--7--3------------------------------------------------ x4
-0--0--0--0--0--0--0--0--0--0--0--0--0--0--7--3------------------------------------------------
-0--0--0--0--0--0--0--0--0--0--0--0--0--0--7--3------------------------------------------------
    .  .  .  .  .  .  .  .  .  .  .  .  .


// 01:52 //

Not the truth.
-----------------------------------------------------------------------------------------------
-----------------------------------------------------------------------------------------------
-----------------------------------------------------------------------------------------------
-0~--0~--0~--6--1--0---------------------------------------------------------------------------
-0~--0~--0~--6--1--0---------------------------------------------------------------------------
-0~--0~--0~--6--1--0---------------------------------------------------------------------------

            
            
Suggest correction
Creating personal tab
Creating personal tab
You can edit any tab online and save it as your Personal.

You can edit, replace or remove any tab part or add personal notes – all changes will be seen only by you.

Personal tabs can be accessed anytime from any device, even offline.
Learn more »
Give kudos to tab author, rate the tab!
1 2 3 4 5
comments
print report bad tab
guest
You may want to rate the tab now too:
select rating
Wanna post a correction for this tab? Suggest correction