Oops, an error
Loading. Please wait.

These Lights Bass Tab

569 views 3 this week
no commentswrite comment
1 2 3 4 5
please rate
add to favorites
launch autoscroll
font size
0
reset
guitar tuner
Tab Pro tools
  • play this tab
  • loop segment
  • change instrument
  • show fretboard
  • metronome
×
Best way to learn
"These Lights"
Autoscroll
slow
fast
+/-
esc
set tempo
stop
Difficulty
Tuning
novice
D A D G B E
Inspiration comes from the guitar tab. It can be played in E or Drop D (I prefer Drop D.

Intro

F|-----------------------------------------------------------------|
C|-----------------------------------------------------------------|
G|-----------------------------------------------------------------|
D|---55-9-5-00~---55-9-5-00~---------------------------------------|


F|----------------------------------------------------------------|
C|----------------------------------------------------------------|
G|-----------7777------5555-3~------------------------------------|
D|---55-9--5------3333--------------------------------------------|

Verse
F|---------------------------------------------------------------|
C|---------------------------------------------------------------|
G|---7777------5555------------5555-5555-------------------------|
D|--------3333------5555~--3333----------------------------------|

F|---------------------------------------------------------------|
C|---------------------------------------------------------------|
G|---7777------5555----------------------------------------------|
D|--------3333------5555-5555------------------------------------|

Pre-chorus

F|---------------------------------------------------------------|
C|---------------------------------------------------------------|
G|-------------4444-2222-----------4444-2~22---------------------|
D|---2222-5555-----------2222-5555-------------------------------|

Chorus

F|-----------------------------------------------------------------|
C|-----------------------------------------------------------------|
G|----------444444----------------------444444---------------------|
D|---000000-------4444444-555555-000000-------444444-5555555-------|

Verse 2

F|---------------------------------------------------------------|
C|---------------------------------------------------------------|
G|---777777--------555555~-------777777--------555555------------|
D|----------333333----------------------333333-------555555------|

F|-------------------------------------------------------------------|
C|-------------------------------------------------------------------|
G|---777777-------555555-3~------777777-------555555-----------------|
D|----------333333---------------------333333--------555555-555555---|

Pre-Chorus

F|---------------------------------------------------------------|
C|---------------------------------------------------------------|
G|-------------4444-2222-----------4444-2~22---------------------|
D|---2222-5555-----------2222-5555-------------------------------|

Chorus

F|---------------------------------------------------------------|
C|---------------------------------------------------------------|
G|--------4444----------------4444-------------------------------|
D|---0000------4444-5555-0000------4444-5555---------------------|


F|---------------------------------------------------------------|
C|---------------------------------------------------------------|
G|----------444444----------------------444444-------------------|
D|---000000--------444444-555555-000000-------444444-55555555555-|

Ending

F|---------------------------------------------------------------|
C|---------------------------------------------------------------|
G|-----------------------666666----------------------------------|
D|---444444-555555-000000------444444-555555-000000--------------|


F|--------------------------------------------------------------------|
C|--------------------------------------------------------------------|
G|-----------------------666666---------------------222222-222222-----|
D|---444444-555555-000000-------444444-555555-000000--------------0~--|
comments
We did not receive enough feedback on this tab! Please rate:
print report bad tab
1 2 3 4 5
I want to post or [tab]
guest
You may want to rate the tab now too:
select rating
Please do not post tabs as comments. Select "correction" instead!