Oops, an error
Loading. Please wait.

Worthless bass

25 views 1 this week
no commentswrite comment
1 2 3 4 5
3 more votes to show rating
add to favorites
×
Save as Personal and add changes to this tab that will be seen only by you. Learn more ›
×
You can save this tab as Personal to edit and correct it or add notes. All changes will be seen only by you. Learn more »
launch autoscroll
font size
0
reset
guitar tuner
edit
Autoscroll
slow
fast
+/-
esc
set tempo
stop
[Intro] - 00.00 - 00.33

F#|----------------------------------------------------------|
C#|------------------------------------3-3-3-3-3-3-3---------|
G#|----5--3--5--6--5--3-5-----5--3--5------------------------|
C#|-0----------------------0---------------------------------| x4

F#|---------------------------------------------------------------------------|
C#|---------------------------------------------------------------------------|
G#|-5-5-5-5-5-5-5-5-3-3-3-3-3-3-3-3-5-5-5-5-5-5-5-5-3-3-3-3-3-3-3-3-----------|
C#|---------------------------------------------------------------------------| x2

[Verse] - 00.33 - 01.10

F#|---------------------------------------------------------------------------|
C#|---------------------------------------------------------------------------|
G#|-4-4-4-4-4-4-4-4-4-4-4-4-4-4-4-4-------------------------------------------|
C#|---------------------------------3-3-3-3-3-3-3-3-3-3-3-3-3-3-3-3-----------|

F#|---------------------------------------------------------------------------|
C#|---------------------------------------------------------------------------|
G#|---------------------------------------------------------------------------|
C#|-7-7-7-7-7-7-7-7-7-7-7-7-7-7-7-7-3-3-3-3-3-3-3-3-3-3-3-3-3-3-3-3-----------|

F#|---------------------------------------------------------------------------|
C#|---------------------------------------------------------------------------|
G#|---------------------------------------------------------------------------|
C#|-7~------------------------------3~----------------------------------------|

F#|---------------------------------------------------------------------------|
C#|---------------------------------------------------------------------------|
G#|-0-0~----------------------------------------------------------------------|
C#|---------------------------------3-3~--------------------------------------| x2

F#|---------------------------------------------------------------------------|
C#|---------------------------------------------------------------------------|
G#|-4-4~----------------------------------------------------------------------|
C#|---------------------------------3-3~--------------------------------------|

F#|---------------------------------------------------------------------------|
C#|---------------------------------------------------------------------------|
G#|---------------------------------------------------------------------------|
C#|-7-7~----------------------------3-3~--------------------------------------|

[Chorus] - 01.10 - 01.36

F#|---------------------------------------------------------------------------|
C#|---------------------------------------------------------------------------|
G#|-4-4-4-4-4-4-4-4-4-4-4-4-4-4-4-4-------------------------------------------|
C#|---------------------------------3-3-3-3-3-3-3-3-3-3-3-3-3-3-3-3-----------|

F#|---------------------------------------------------------------------------|
C#|---------------------------------------------------------------------------|
G#|---------------------------------------------------------------------------|
C#|-7-7-7-7-7-7-7-7-7-7-7-7-7-7-7-7-3-3-3-3-3-3-3-3-3-3-3-3-3-3-3-3-----------|

F#|---------------------------------------------------------------------------|
C#|---------------------------------------------------------------------------|
G#|-4-4-4-4-4-4-4-4-4-4-4-4-4-4-4-4-------------------------------------------|
C#|---------------------------------3-3-3-3-3-3-3-3-3-3-3-3-3-3-3-3-----------|

F#|---------------------------------------------------------------------------|
C#|---------------------------------------------------------------------------|
G#|------------------------------------------------------------------3~-------|
C#|-7-7-7-7-7-7-7-7-7-7-7-7-7-7-7-7-3-3-3-3-3-3-3-3-3-3-3-3-3-3-3-3-----------|

[Verse] - 01.36 - 02.03

F#|---------------------------------------------------------------------------|
C#|---------------------------------------------------------------------------|
G#|-4-4-4---4-4-4---4-4-4---4-4-4---4-4-4---4-4-4---4-4-4---4-----------------|
C#|------------------------------------------------------------3--------------| 

F#|---------------------------------------------------------------------------|
C#|---------------------------------------------------------------------------|
G#|-4-4-4---4-4-4---4-4-4---4-4-4---------------------------------------------|
C#|---------------------------------7-7-7-7-7-7-7-7-3-3-3-3-3-3-3-3-----------| 

F#|---------------------------------------------------------------------------|
C#|---------------------------------------------------------------------------|
G#|-4-4-4---4-4-4---4-4-4---4-4-4---4-4-4---4-4-4---4-4-4---4-----------------|
C#|------------------------------------------------------------3--------------| 

F#|---------------------------------------------------------------------------|
C#|---------------------------------------------------------------------------|
G#|-4-4-4---4-4-4---4-4-4---4-4-4---------------------------------------------|
C#|---------------------------------7-7-7-7-7-7-7-7-3-3-3-3-3-3-3-3-----------| 

F#|---------------------------------------------------------------------------|
C#|---------------------------------------------------------------------------|
G#|---------------------------------------------------------------------------|
C#|-7~------------------------------3~----------------------------------------|

[Chorus] - 02.03 - 02.30

F#|---------------------------------------------------------------------------|
C#|---------------------------------------------------------------------------|
G#|-4-4-4-4-4-4-4-4-4-4-4-4-4-4-4-4-------------------------------------------|
C#|---------------------------------3-3-3-3-3-3-3-3-3-3-3-3-3-3-3-3-----------|

F#|---------------------------------------------------------------------------|
C#|---------------------------------------------------------------------------|
G#|---------------------------------------------------------------------------|
C#|-7-7-7-7-7-7-7-7-7-7-7-7-7-7-7-7-3-3-3-3-3-3-3-3-3-3-3-3-3-3-3-3-----------|

F#|---------------------------------------------------------------------------|
C#|---------------------------------------------------------------------------|
G#|-4-4-4-4-4-4-4-4-4-4-4-4-4-4-4-4-------------------------------------------|
C#|---------------------------------3-3-3-3-3-3-3-3-3-3-3-3-3-3-3-3-----------|

F#|---------------------------------------------------------------------------|
C#|---------------------------------------------------------------------------|
G#|---------------------------------------------------------------------------|
C#|-7-7-7-7-7-7-7-7-7-7-7-7-7-7-7-7-3-3-3-3-3-3-3-3-3-3-3-3-3-3-3-3-----------|

[Bridge] - 02.30 - 03.08

F#|------------------------------------------------|
C#|------------------------------------------------|
G#|------------------------------------------------|
C#|-3-0--0--0-0-3-0--0--0-0--3-0--0-3-0--0-3~------|

F#|---------------------------------------------------------------------------|
C#|---------------------------------------------------------------------------|
G#|-----------------------6--5--3-5-----------------------6--5--3-6-----------|
C#|-0x--------------------------------------0~--------------------------------|

F#|------------------------------------------------|
C#|------------------------------------------------|
G#|----------------------------------6--5--3-5-----|
C#|-0-0--0-0-0--0-0--0-0--0-0-0--0-0---------------| x2

F#|------------------------------------------------|
C#|------------------------------------------------|
G#|----------------------------------6--5--3-5-----|
C#|-0---0-0-0-0-0-0-0-0-0-0-0-0-0-0----------------| x2

F#|------------------------------------------------|
C#|------------------------------------------------|
G#|------------------------------------------------|
C#|-3-0--0--0-0-3-0--0--0-0--3-0--0-3-0--0-3~------|

[Chorus] - 03.08 - End.

F#|---------------------------------------------------------------------------|
C#|---------------------------------------------------------------------------|
G#|-4-4-4-4-4-4-4-4-4-4-4-4-4-4-4-4-------------------------------------------|
C#|---------------------------------3-3-3-3-3-3-3-3-3-3-3-3-3-3-3-3-----------|

F#|---------------------------------------------------------------------------|
C#|---------------------------------------------------------------------------|
G#|---------------------------------------------------------------------------|
C#|-7-7-7-7-7-7-7-7-7-7-7-7-7-7-7-7-3-3-3-3-3-3-3-3-3-3-3-3-3-3-3-3-----------|

F#|---------------------------------------------------------------------------|
C#|---------------------------------------------------------------------------|
G#|-4-4-4-4-4-4-4-4-4-4-4-4-4-4-4-4-------------------------------------------|
C#|---------------------------------3-3-3-3-3-3-3-3-3-3-3-3-3-3-3-3-----------|

F#|---------------------------------------------------------------------------|
C#|---------------------------------------------------------------------------|
G#|---------------------------------------------------------------------------|
C#|-7-7-7-7-7-7-7-7-7-7-7-7-7-7-7-7-3-3-3-3-3-3-3-3-3-3-3-3-3-3-3-3-----------|

F#|---------------------------------------------------------------------------|
C#|---------------------------------------------------------------------------|
G#|-4-4-4-4-4-4-4-4-4-4-4-4-4-4-4-4-------------------------------------------|
C#|---------------------------------3-3-3-3-3-3-3-3-3-3-3-3-3-3-3-3-----------|

F#|---------------------------------------------------------------------------|
C#|---------------------------------------------------------------------------|
G#|---------------------------------------------------------------------------|
C#|-7-7-7-7-7-7-7-7-7-7-7-7-7-7-7-7-3-3-3-3-3-3-3-3-3-3-3-3-3-3-3-3-----------|

F#|---------------------------------------------------------------------------|
C#|---------------------------------------------------------------------------|
G#|-4-4-4-4-4-4-4-4-4-4-4-4-4-4-4-4-------------------------------------------|
C#|---------------------------------3-3-3-3-3-3-3-3-3-3-3-3-3-3-3-3-----------|

F#|---------------------------------------------------------------------------|
C#|---------------------------------------------------------------------------|
G#|------------------------------------------------------------------3~-------|
C#|-7-7-7-7-7-7-7-7-7-7-7-7-7-7-7-7-3-3-3-3-3-3-3-3-3-3-3-3-3-3-3-3-----------|

Thank you! :)

************************************

| x   Dead note
| g   Grace note
| (n) Ghost note
| h   Hammer-on
| p   Pull-off
| r   Release
| >   Accented note
| t   Tapping
| b   Bend
| br  Bend release
| pb  Pre-bend
| pbr Pre-bend release
| /   Slide up
| \   Slide down
| ~   Vibrato
| s   Slap
| P   Pop
| PM  Palm mute
| TR  Trill
| N   Tremolo

************************************

            
            
Suggest correction
Creating personal tab
Creating personal tab
You can edit any tab online and save it as your Personal.

You can edit, replace or remove any tab part or add personal notes – all changes will be seen only by you.

Personal tabs can be accessed anytime from any device, even offline.
Learn more »
Give kudos to tab author, rate the tab!
1 2 3 4 5
comments
print report bad tab
guest
You may want to rate the tab now too:
select rating
Wanna post a correction for this tab? Suggest correction