Oops, an error
Loading. Please wait.

Welcome To The Academy bass

267 views 1 this week
no commentswrite comment
1 2 3 4 5
3 more votes to show rating
add to favorites
×
Save as Personal and add changes to this tab that will be seen only by you. Learn more ›
×
You can save this tab as Personal to edit and correct it or add notes. All changes will be seen only by you. Learn more »
launch autoscroll
font size
0
reset
guitar tuner
edit
Autoscroll
slow
fast
+/-
esc
set tempo
stop
+++++++++++++++++++++++++++++++++++++++++++++
| Your Name In Vain- Welcome To The Academy |
+++++++++++++++++++++++++++++++++++++++++++++

Great song, Drop D ;)

Verse
"Exhale your breath.."
1.
|-----------------------------------|
|-----------------------------------|
|-----------------------------------|
|--555-555--00x--00~--00x--555-555--|

"Well! Let's feel the burning.."
2.
|---------------------------------------|
|---------------------------------------|
|---------------------------------------|
|-00x--00~--00x--555-555--00x--00~--00x-|

3.
|--------------------|
|--------------------|
|--------------------|
|-55555555-55555005x-|

Chorus          x2
"I'll run, you'll follow.."
4.
|-------------------------------------|
|-------------------------------------|
|-------------------------------------|
|-00000000-00000000-55555555-55555555-|

"Just close your eyes.."
5.
|-------------------------------------|
|--------------------------2----------|
|-------------------4444444-----------|
|-00000000-00000000----------55555555-|

"Tonight..."
6.
|-------------------------------------|
|-------------------------------------|
|-------------------------------------|
|-00000000-00000000-55555555-55555555-|

Verse
"So this is the way it's got to be.."
7.
|---------------------------------|
|---------------------------------|
|-----------------------------4-7-|
|-000x-00x-00x--555x-55x-55x-5----|

"Let's go by the pictures.."
8.
|----------------------------|
|----------------------------|
|----------------------------|
|-000x-00x-00x--555x-55x-55x-|

"We could cut you open, take a look inside.."
9.
|-------------------------------------|
|-------------------------------------|
|-------------------------------------|
|-00000000-00000000-55555555-55555555-|

"On a pavement, with no life in your eyes.."
10.
|-------------------------------------|
|-------------------------------------|
|-------------------------------------|
|-00000000-00000000-55555555-77777777-|


Chorus          x2
"I'll run, you'll follow.."
11.
|-------------------------------------|
|-------------------------------------|
|-------------------------------------|
|-00000000-00000000-55555555-55555555-|

"We could make you as while, take you out to try.."
12.
|-------------------------------------|
|--------------------------2----------|
|-------------------4444444-----------|
|-00000000-00000000----------55555555-|

"You'll be the winner tonight...!"
13.
|-------------------------------------|
|-------------------------------------|
|-------------------------------------|
|-00000000-00000000-55555555-55555555-|

Outro
14.
|-----|
|-----|
|-----|
|-00~-|

Verse
"You look like a model.."
15.
|-------------------------------------|
|-------------------------------------|
|-------------------------------------|
|-00000000-00000000-55555555-55555555-|

"It turns me on when you play dead.."
16.
|-------------------------------------|
|-------------------------------------|
|-------------------------------------|
|-00000000-00000000-55555555-77777777-|

"I'll welcome you to the academy.."
17.
|----------------------------------------------|
|----------------------------------------------|
|----------------------------------------------|  x2
|-555-444-00--555-444-00--555-444-00-2222-2222-|

Chorus          x2
"I'll run, you'll follow.."
18.
|-------------------------------------|
|-------------------------------------|
|-------------------------------------|
|-00000000-00000000-55555555-55555555-|

"We could thank you as while, take you out to try.."
19.
|-------------------------------------|
|--------------------------2----------|
|-------------------4444444-----------|
|-00000000-00000000----------55555555-|

"You'll be the winner tonight...!"
20.
|-------------------------------------|
|-------------------------------------|
|-------------------------------------|
|-00000000-00000000-55555555-55555555-|

Outro
21.
|----------------------|
|----------------------|
|----------------------|
|-000-222-444-555-7777-|

Bridge
22.
|----------------------------------------------------------|
|----------------------------------------------------------|
|----------------------------------------------------------|
|-000x-0-00000x-0000-000x-0-00000x-0000-000x-0-00000x-0000-|

23.
|----------------------|
|----------------------|
|----------------------|
|-000-222-444-555-7777-|

"Welcome to the academy...Welcome to the academy.."
24.
|-----------------------------------------------------|
|-----------------------------------------------------|
|-----------------------------------------------------|
|-000x-0-00000x-0000-000x-0-00000x-0000-000x-0-00000x-|

25.
|----------------------|
|----------------------|
|----------------------|
|-000-222-444-555-7777-|

26.
|------------------------------------------------------|
|------------------------------------------------------|
|--------------------4~-4-44~-444-444------------------| x2
|-0~-0-00~--0~-0-00~------------------5~-5-55~-555-555-|

27.
|----------------------------------------------|
|----------------------------------------------|
|--------------------4~-4-44~-444-444----------|
|-0~-0-00~--0~-0-00~------------------5555555x-|

"I hate to love you.."
28.
|---------------------------------------------------------|
|---------------------------------------------------------|
|-----------------------------444444-444444---------------| x3
|-000000-000000-000000-000000---------------555555-555555-|

"Will not happen again.."
29.
|-------------------------------------------------------------------|
|-------------------------------------------------------------------|
|-----------------------------444444-444444-------------------------| 
|-000000-000000-000000-000000---------------5555x-5555x-5555x-5555x-|

30.
|----|
|----|
|----|
|-0~-|

Here are the lyrics I figured out:

++++++++++++++++++++++

Lyrics:

Hey! Let's bring it together
Exhale your breath and we'll die in circles..
Well! Let's feel the burning
Just soul my hands and we'll burn alive
We'll burn alive..

Whoo!

I'll run! You'll follow
And I'll run, so I can be everything you hate
Just close your eyes so we can hear you roar
Let's start the poster we'll make you a star
Tonight...

So this is the way it's got to be
Let's go by the book and let's go by the pictures
Let's go by the pictures
We could cut you open, take a look inside
You're so pretty when you're faced down
On a pavement with no life in your eyes

I'll run! You'll follow
And I'll run, so I can be everything you hate
We could thank you as while, take you out to try
We'll dress you up like a dog, you'll be the winner tonight
You'll be the winner tonight!!!!!

You look like a model when I turn off the lights
It just don't matter when it's paper white
It turns me on when you play dead because your cold,
Cold to the touch

I'll welcome you to the academy
I'll welcome you to the academy
I'll welcome you to the academy
I'll welcome yoooooooooooooooouuuuuuuuu

I'll run! You'll follow
And I'll run, so I can be everything you hate
We could thank you as while, take you out to try
We'll dress you up like a dog, you'll be the winner tonight
You'll be the winner tonight!!!!!

Welcome to the academy! The academy
Welcome to the academy! The academy
Welcome to the academy! The academy

Tonight I'm in love
But I'll try not to happen again
When it's too dark...
When it's too..Late!

I hate to love you
Cus' you're the one I'd love to hate
And I'm sure that I'll take you back
It's only just a matter of things..

Tonight you lied..
I'll follow back..
Will not happen again
When it's too...Late!!!!!!!!!!!!!!!!!!!!!!

+++++++++++++++++++++++

I know, they stink :(

+++++++++++++++++++++++++++++++++
| RaiLeff                       |
| Underground__Dora@hotmail.com |
+++++++++++++++++++++++++++++++++
Suggest correction
Creating personal tab
Creating personal tab
You can edit any tab online and save it as your Personal.

You can edit, replace or remove any tab part or add personal notes – all changes will be seen only by you.

Personal tabs can be accessed anytime from any device, even offline.
Learn more »
Give kudos to tab author, rate the tab!
1 2 3 4 5
comments
print report bad tab
guest
You may want to rate the tab now too:
select rating
Wanna post a correction for this tab? Suggest correction