Oops, an error
Loading. Please wait.

Billionaires bass

44 views 3 this week
no commentswrite comment
1 2 3 4 5
3 more votes to show rating
add to favorites
×
Save as Personal and add changes to this tab that will be seen only by you. Learn more ›
×
You can save this tab as Personal to edit and correct it or add notes. All changes will be seen only by you. Learn more »
launch autoscroll
font size
0
reset
guitar tuner
edit
Autoscroll
slow
fast
+/-
esc
set tempo
stop
Author
Difficulty
-------------------------------------------------------------------------------
                             BILLIONAIRES - Your Twenties
-------------------------------------------------------------------------------
Tabbed by: John Shannon a.k.a TheRobotFrom94
E-mail: john.shannon1994@hotmail.com

This was a request from a friend that I did really quickly so it may have mistakes.
The Song basically follows the chord pattern, so listen to the song for the changes/repeats etc.

Tuning: standard

Intro/chorus (come in on the G in the intro, and it's a little off the beat, 
so pay attention to the song for timing))
  
  1 + 2 + 3 + 4 + 1 + 2 + 3 + 4 + 1 + 2 + 3 + 4 + 1 + 2 + 3 + 4 + 
G|----------------------------------------------------------------|
D|0-0-0-0-0-0-0-0-------------------------------------------------|
A|---------------0-0-0-0--------------------------------0-0-0-0---|
E|-----------------------0-0-0-0------3-3-3-3-3-2-2-2-2-----------|


verse 1
  1 + 2 + 3 + 4 + 1 + 2 + 3 + 4 + 1 + 2 + 3 + 4 + 1 + 2 + 3 + 4 + 
G|7-7-7-7-7-7-7-7-7-7-7-7-7-7-7-7-4-4-4-4-4-4-4-4-2-2-2-2-2-2-2-2-|
D|----------------------------------------------------------------|
A|----------------------------------------------------------------|
E|----------------------------------------------------------------| repeat

pre-chorus
  1 + 2 + 3 + 4 + 1 + 2 + 3 + 4 + 1 + 2 + 3 + 4 + 1 + 2 + 3 + 4 + 
G|----------------------------------------------------------------|
D|5-5-5-5-5-5-5-5-5-5-5-5-5-5-5-5-9-9-9-9-9-9-9-9-10-(x8)---------|
A|----------------------------------------------------------------| the 10s wouldn't fit properly
E|----------------------------------------------------------------|

  1 + 2 + 3 + 4 + 1 + 2 + 3 + 4 +  
G|--------------------------------|
D|5-5-5-5-5-5-5-5-5-5-5-5-5-5-5-5-| not sure if this is the exact number, but it carries on straight into
A|--------------------------------| the chorus
E|--------------------------------|


Chorus (again; watch the timings)
  1 + 2 + 3 + 4 + 1 + 2 + 3 + 4 + 1 + 2 + 3 + 4 + 1 + 2 + 3 + 4 + 
G|----------------------------------------------------------------|
D|0-0-0-0-0-0-0-0-------------------------------------------------|
A|---------------0-0-0-0--------------------------------0-0-0-0---|
E|-----------------------0-0-0-0------3-3-3-3-3-2-2-2-2-----------|

pre-verse

  1 + 2 + 3 + 4 + 1 + 2 + 3 + 4 + 1 + 2 + 3 + 4 + 1 + 2 + 3 + 4 + 
G|7-7-7-7-7-7-7-7-7-7-7-7-7/2-2-2-4-4-4-4-4-4-4-4-2-2-2-2-2-2-2-2-|
D|----------------------------------------------------------------|
A|----------------------------------------------------------------|
E|----------------------------------------------------------------|

Verse 2 same as previous
pre-chorus same as previous
chorus

bridge
some awkward stuff around the following; improv it bro, just make sure you and the guitar are on the same page

F#m, D.  E, G.



repeat verse, pre-chorus and chorus as per the song
and with that; you're done
man this tab is shoddy, but I did it quickly
I'll take more time with my next one honest <3
have fun 




| /  slide up
| \  slide down
| h  hammer-on
| p  pull-off
| ~  vibrato
| +  harmonic
| x  Mute note
===============================================================================

            
            
Suggest correction
Creating personal tab
Creating personal tab
You can edit any tab online and save it as your Personal.

You can edit, replace or remove any tab part or add personal notes – all changes will be seen only by you.

Personal tabs can be accessed anytime from any device, even offline.
Learn more »
Give kudos to tab author, rate the tab!
1 2 3 4 5
comments
print report bad tab
guest
You may want to rate the tab now too:
select rating
Wanna post a correction for this tab? Suggest correction