Oops, an error
Loading. Please wait.

All Roads To Fault bass

317 views 1 this week
1 commentread comment
1 2 3 4 5
3 more votes to show rating
add to favorites
×
Save as Personal and add changes to this tab that will be seen only by you. Learn more ›
×
You can save this tab as Personal to edit and correct it or add notes. All changes will be seen only by you. Learn more »
launch autoscroll
font size
0
reset
guitar tuner
edit
Autoscroll
slow
fast
+/-
esc
set tempo
stop
-------------------------------------------------------------------------------
			     All Roads to Fault - YOURCODENAMEIS:MILO
-------------------------------------------------------------------------------

Tabbed By : Louis Richards AKA MadClownDisease
e-mail: hereticbynature@hotmail.com

Tuning: Drop D

Verse (0:00) x2
G|-------------------------------------------------|
D|-------------------------------------------------|
A|-------------------------------------------------|
D|-12-12-12-12-12--12-12-12--12-12-12-0-10-0-10/12-|

G|-----------------------------------------------|
D|-----------------------------------------------|
A|-----------------------------------------------|
D|-12-12-12-12-12--12-12-12--12-12-12-0-10-0-12x-|

G|--------------------------------|
D|-7--7-7-------------------------|
A|---------7--7-7--5--5-5--4--4-4-| -I'm not too sure about that 7th on D
D|--------------------------------|

Break

Chorus (0:39) "FAAAAAAAAAAAAULT!"
G|----------------------------------|
D|----------------------------------|
A|-5-(x16)-9-(x16)-10-(x16)-4-(x16)-|
D|----------------------------------|

G|-----------------------------------|
D|-----------------------------------|
A|-5-(x16)-9-(x16)-10-(x16)-12-(x16)-| x2
D|-----------------------------------|

Break "but here is the one that called out your name"

G|----------------------------------|
D|----------------------------------|
A|-5-(x16)-9-(x16)-10-(x16)-4-(x16)-|
D|----------------------------------|

Bridge (1:30)
G|--------------------------------|
D|-----------------7--7-7---------|
A|-5--5-5--7--7-7----------4--4-4-|
D|--------------------------------|

Break

Riff -getting slower (1:55)
G|--------------------------|
D|--------------------------|
A|--------------------------| x8
D|-0--8-0-0--8-0-0--8-0-0-8-|

Riff - getting faster (2:22)
G|----------|
D|----------|
A|----------|
D|-0--8-0-0-|

G|-------|
D|-------|
A|-------| x21
D|-8-0-0-|

G|----------|
D|----------|
A|----------|
D|-12-12-12-|

| /  slide up
| \  slide down
| h  hammer-on
| p  pull-off
| ~  vibrato
| +  harmonic
| x  Mute note
===============================================================================
Suggest correction
Creating personal tab
Creating personal tab
You can edit any tab online and save it as your Personal.

You can edit, replace or remove any tab part or add personal notes – all changes will be seen only by you.

Personal tabs can be accessed anytime from any device, even offline.
Learn more »
Give kudos to tab author, rate the tab!
1 2 3 4 5
comments
print report bad tab
1 comment total.
0 reply
MadClownDisease 583 Mar 21, 2008 07:38 AM

I've just realised that that bit in the verse i wasn't sure of is wrong, it should be:
G|--------------------------------|
D|---------7--7-7-----------------|
A|-7--7-7----------5--5-5--4--4-4-|
D|--------------------------------|
I think so anyway lol

guest
You may want to rate the tab now too:
select rating
Wanna post a correction for this tab? Suggest correction